Song name
# A B C D E F G H I J K L M N O P Q R S T U V W X Y Z

Jimmy Eat World - Electable Give It Up tab

Jimmy Eat World - "Electable (Give It Up)"
Album: Chase This Light (2007)

Tabbed by: Mark Jones
Date: 10/05/2007
Send comments to: dntn31@yahoo.com

Feel free to correct if needed.
Strumming patterns are not provided. Pick them up by listening.

Tuning: Drop Db (Db Ab Db Gb Bb Eb)

Intro:
Guitar 1
|--------------------------------|
|--------------------------------|
|-3-----7-----------3------------|
|-3-----7-----3-----3------------|
|-1-----5-----3-----1------------|
|-------------3------------------|


Verse 1: (repeat 4x)
Guitar 1
|--------------------------------|
|--------------------------------|
|-3-----7-----------3------------|
|-3-----7-----3-----3------------|
|-1-----5-----3-----1------------|
|-------------3------------------|

Guitar 2 (enter on 3rd time)
|--------------------------------|
|--------------------------------|
|-10----7-----12----10-----------|
|-10----7-----10----8------------|
|-8-----5-----10----8------------|
|--------------------------------|


Chorus (repeat 2x):
Guitar 1
|--------------------------------|
|--------------------------------|
|-3-----7-----5-----3------------|
|-3-----7-----5-----3------------|
|-1-----5-----3-----1------------|
|--------------------------------|

Guitar 2
|--------------------------------|
|--------------------------------|
|-10----7-----------3------------|
|-10----7-----3-----3------------|
|-8-----5-----3-----1------------|
|-------------3------------------|


Verse 2: (repeat 4x)
Guitar 1
|--------------------------------|
|--------------------------------|
|-3-----7-----------3------------|
|-3-----7-----3-----3------------|
|-1-----5-----3-----1------------|
|-------------3------------------|

Guitar 2 (enter on 3rd time)
|--------------------------------|
|--------------------------------|
|-10----7-----12----10-----------|
|-10----7-----10----8------------|
|-8-----5-----10----8------------|
|--------------------------------|


Chorus (repeat 2x):
Guitar 1
|--------------------------------|
|--------------------------------|
|-3-----7-----5-----3------------|
|-3-----7-----5-----3------------|
|-1-----5-----3-----1------------|
|--------------------------------|

Guitar 2
|--------------------------------|
|--------------------------------|
|-10----7-----------3------------|
|-10----7-----3-----3------------|
|-8-----5-----3-----1------------|
|-------------3------------------|


Bridge
Guitar 1:
|---------------------------------------------------------------------------|
|---------------------------------------------------------------------------|
|------------6-------------6--------5-------------6-------------6--------5--|
|--3--3---3------3--3---3-----3--3------3--3---3------3--3---3-----3--3-----|
|--3--3---3------3--3---3-----3--3------3--3---3------3--3---3-----3--3-----|
|--3--3---3------3--3---3-----3--3------3--3---3------3--3---3-----3--3-----|

|---------------------------------------------------------------------------|
|---------------------------------------------------------------------------|
|------------6-------------6--------6-------------6-------------6--------6--|
|--0--0---0------0--0---0-----0--0------0--0---0------0--0---0-----0--0-----|
|--0--0---0------0--0---0-----0--0------0--0---0------0--0---0-----0--0-----|
|--0--0---0------0--0---0-----0--0------0--0---0------0--0---0-----0--0-----|

|---------------------------------------------------------------------------|
|---------------------------------------------------------------------------|
|-----------10------------10--------9------------10------------10--------9--|
|-10-10--10-----10-10--10----10-10-----10-10--10-----10-10--10----10-10-----|
|-10-10--10-----10-10--10----10-10-----10-10--10-----10-10--10----10-10-----|
|-10-10--10-----10-10--10----10-10-----10-10--10-----10-10--10----10-10-----|

|---------------------------------------------------------------------------|
|----------------------------------10---------------------------------------|
|-----------10------------12---------------------10------------12-------10--|
|--8--8---8------8--8---8-----8--8------8--8---8------8--8---8-----8--8-----|
|--8--8---8------8--8---8-----8--8------8--8---8------8--8---8-----8--8-----|
|--8--8---8------8--8---8-----8--8------8--8---8------8--8---8-----8--8-----|


Bridge Outro
Guitar 1:                             NH
|------------------------------------------|
|------------------------------------------|
|-(10)------------------------10/x----10---|
|-(10)--(ring)----------------10/x---------|
|-(8)--------------------------8/x---------|
|------------------------------------------|

Guitar 2:
|------------------------------------------|
|------------------------------------------|
|-----------10----7-----------3------------|
|-----------10----7-----3-----3------------|
|-----------8-----5-----3-----1------------|
|-----------------------3------------------|


Chorus 3 (repeat 4x):
Guitar 1
|--------------------------------|
|--------------------------------|
|-3-----7-----5-----3------------|
|-3-----7-----5-----3------------|
|-1-----5-----3-----1------------|
|--------------------------------|

Guitar 2
|--------------------------------|
|--------------------------------|
|-10----7-----------3------------|
|-10----7-----3-----3------------|
|-8-----5-----3-----1------------|
|-------------3------------------|


Outro:
Guitar 1
|--------------------------------|
|--------------------------------|
|-3------------------------------|
|-3-----(ring)--------(feedback)-|
|-1------------------------------|
|--------------------------------|

Guitar 2
|--------------------------------|
|--------------------------------|
|-10-----------------------------|
|-10----(ring)--------(feedback)-|
|-8------------------------------|
|--------------------------------|
Tap to rate this tab
# A B C D E F G H I J K L M N O P Q R S T U V W X Y Z