Song name
# A B C D E F G H I J K L M N O P Q R S T U V W X Y Z

Jimmy Eat World - Chase This Light tab

This is my first tab, and I tried really hard to get it perfect.
this song is in drop d tuning with a capo on 2nd fret

*I'm a suspect...*
e|-----3-----3---------3-----3---------3-----3---------3-----3----|
B|---1-----1-----1---1-----1-----1---1-----1-----1---1-----1-----1|
G|----------------------------------------------------------------|
D|----------------------------------------------------------------|
A|-3-----3-----3---3-----3-----3---2-----2-----2---2-----2-----2--|
D|----------------------------------------------------------------|

e|-----3-----3---------3-----3---------3-----3---------3-----3----|
B|---1-----1-----1---1-----1-----1---1-----1-----1---1-----1-----1|
G|----------------------------------------------------------------|
D|----------------------------------------------------------------|
A|-0-----0-----0-------------------3-----3-----3---3-----3-----3--|
D|-----------------3-----3-----3----------------------------------|

*Yellow faces...*
e|-----3-----3---------3-----3---------3-----3---------3-----3----|
B|---1-----1-----1---1-----1-----1---1-----1-----1---1-----1-----1|
G|----------------------------------------------------------------|
D|----------------------------------------------------------------|
A|-3-----3-----3---3-----3-----3---2-----2-----2---2-----2-----2--|
D|----------------------------------------------------------------|

e|-----3-----3---------3-----3---------3-----3---------3-----3----|
B|---1-----1-----1---1-----1-----1---1-----1-----1---1-----1-----1|
G|----------------------------------------------------------------|
D|----------------------------------------------------------------|
A|-0-----0-----0-------------------3-----3-----3---3-----3-----3--|
D|-----------------3-----3-----3----------------------------------|

*Because tonight...*
e|-----3-----3---------3-----3---------3-----3---------3-----3----|
B|---1-----1-----1---1-----1-----1---1-----1-----1---1-----1-----1|
G|----------------------------------------------------------------|
D|----------------------------------------------------------------|
A|-0-----0-----0-------------------3-----3-----3---3-----3-----3--|
D|-----------------3-----3-----3----------------------------------|

e|-----3-----3---------3-----3---------3-----3---------3-----3----|
B|---1-----1-----1---1-----1-----1---1-----1-----1---1-----1-----1|
G|----------------------------------------------------------------|
D|----------------------------------------------------------------|
A|-0-----0-----0-------------------3-----3-----3---3-----3-----3--|
D|-----------------3-----3-----3----------------------------------|

e|-----3-----3---------3-----3---------3-----3---------3-----3----|
B|---1-----1-----1---1-----1-----1---1-----1-----1---1-----1-----1|
G|----------------------------------------------------------------|
D|----------------------------------------------------------------|
A|-0-----0-----0-------------------3-----3-----3---3-----3-----3--|
D|-----------------3-----3-----3----------------------------------|

e|-----3-----3---------3-----3---------3-----3---------3-----3----|
B|---1-----1-----1---1-----1-----1---1-----1-----1---1-----1-----1|
G|----------------------------------------------------------------|
D|----------------------------------------------------------------|
A|-0-----0-----0-------------------3-----3-----3---3-----3-----3--|
D|-----------------3-----3-----3----------------------------------|

*My just so...*
e|-----3-----3---------3-----3---------3-----3---------3-----3----|
B|---1-----1-----1---1-----1-----1---1-----1-----1---1-----1-----1|
G|----------------------------------------------------------------|
D|----------------------------------------------------------------|
A|-3-----3-----3---3-----3-----3---2-----2-----2---2-----2-----2--|
D|----------------------------------------------------------------|

e|-----3-----3---------3-----3---------3-----3---------3-----3----|
B|---1-----1-----1---1-----1-----1---1-----1-----1---1-----1-----1|
G|----------------------------------------------------------------|
D|----------------------------------------------------------------|
A|-0-----0-----0-------------------3-----3-----3---3-----3-----3--|
D|-----------------3-----3-----3----------------------------------|

*Confetti rainfall...*
e|-----3-----3---------3-----3---------3-----3---------3-----3----|
B|---1-----1-----1---1-----1-----1---1-----1-----1---1-----1-----1|
G|----------------------------------------------------------------|
D|----------------------------------------------------------------|
A|-3-----3-----3---3-----3-----3---2-----2-----2---2-----2-----2--|
D|----------------------------------------------------------------|

e|-----3-----3---------3-----3---------3-----3---------3-----3----|
B|---1-----1-----1---1-----1-----1---1-----1-----1---1-----1-----1|
G|----------------------------------------------------------------|
D|----------------------------------------------------------------|
A|-0-----0-----0-------------------3-----3-----3---3-----3-----3--|
D|-----------------3-----3-----3----------------------------------|

*Because tonight...*
e|-----3-----3---------3-----3---------3-----3---------3-----3----|
B|---1-----1-----1---1-----1-----1---1-----1-----1---1-----1-----1|
G|----------------------------------------------------------------|
D|----------------------------------------------------------------|
A|-0-----0-----0-------------------3-----3-----3---3-----3-----3--|
D|-----------------3-----3-----3----------------------------------|

e|-----3-----3---------3-----3---------3-----3---------3-----3----|
B|---1-----1-----1---1-----1-----1---1-----1-----1---1-----1-----1|
G|----------------------------------------------------------------|
D|----------------------------------------------------------------|
A|-0-----0-----0-------------------3-----3-----3---3-----3-----3--|
D|-----------------3-----3-----3----------------------------------|

e|-----3-----3---------3-----3---------3-----3---------3-----3----|
B|---1-----1-----1---1-----1-----1---1-----1-----1---1-----1-----1|
G|----------------------------------------------------------------|
D|----------------------------------------------------------------|
A|-0-----0-----0-------------------3-----3-----3---3-----3-----3--|
D|-----------------3-----3-----3----------------------------------|

e|-----3-----3---------3-----3---------3-----3---------3-----3----|
B|---1-----1-----1---1-----1-----1---1-----1-----1---1-----1-----1|
G|----------------------------------------------------------------|
D|----------------------------------------------------------------|
A|-0-----0-----0-------------------3-----3-----3---3-----3-----3--|
D|-----------------3-----3-----3----------------------------------|

*A movie still...*
e|-----3-----3---------3-----3---------3-----3---------3-----3----|
B|---1-----1-----1---1-----1-----1---1-----1-----1---1-----1-----1|
G|----------------------------------------------------------------|
D|----------------------------------------------------------------|
A|-0-----0-----0---0-----0-----0----------------------------------|
D|---------------------------------3-----3-----3---3-----3-----3--|

e|-----3-----3---------3-----3---------3-----3---------3-----3----|
B|---1-----1-----1---1-----1-----1---1-----1-----1---1-----1-----1|
G|----------------------------------------------------------------|
D|----------------------------------------------------------------|
A|-3-----3-----3---3-----3-----3---2-----2-----2---2-----2-----2--|
D|----------------------------------------------------------------|

*I've seen the best of love...*
e|-----3-----3---------3-----3---------3-----3---------3-----3----|
B|---1-----1-----1---1-----1-----1---1-----1-----1---1-----1-----1|
G|----------------------------------------------------------------|
D|----------------------------------------------------------------|
A|-0-----0-----0---0-----0-----0----------------------------------|
D|---------------------------------3-----3-----3---3-----3-----3--|

e|-----3-----3---------3-----3---------3-----3---------3-----3----|
B|---1-----1-----1---1-----1-----1---1-----1-----1---1-----1-----1|
G|----------------------------------------------------------------|
D|----------------------------------------------------------------|
A|-3-----3-----3---3-----3-----3---2-----2-----2---0-----0-----0--|
D|----------------------------------------------------------------|

e|----------------------------------------------------------------|
B|----------------------------------------------------------------|
G|----------------------------------------------------------------|
D|----------------------------------------------------------------|
A|-0~~~~----------------------------------------------------------|
D|----------------------------------------------------------------|

*Confetti rainfall..*
(no guitar)

*Because tonight...*
e|-----3-----3---------3-----3---------3-----3---------3-----3----|
B|---1-----1-----1---1-----1-----1---1-----1-----1---1-----1-----1|
G|----------------------------------------------------------------|
D|----------------------------------------------------------------|
A|-0-----0-----0-------------------3-----3-----3---3-----3-----3--|
D|-----------------3-----3-----3----------------------------------|

e|-----3-----3---------3-----3---------3-----3---------3-----3----|
B|---1-----1-----1---1-----1-----1---1-----1-----1---1-----1-----1|
G|----------------------------------------------------------------|
D|----------------------------------------------------------------|
A|-0-----0-----0-------------------3-----3-----3---3-----3-----3--|
D|-----------------3-----3-----3----------------------------------|

*Oh babe I know...*
e|-----3-----3---------3-----3---------3-----3---------3-----3----|
B|---1-----1-----1---1-----1-----1---1-----1-----1---1-----1-----1|
G|----------------------------------------------------------------|
D|----------------------------------------------------------------|
A|-0-----0-----0-------------------3-----3-----3---2-----2-----2--|
D|-----------------3-----3-----3----------------------------------|

*Chase this light...*
e|-----3-----3---------3-----3---------3-----3---------3-----3----|
B|---1-----1-----1---1-----1-----1---1-----1-----1---1-----1-----1|
G|----------------------------------------------------------------|
D|----------------------------------------------------------------|
A|-0-----0-----0-------------------3-----3-----3---3-----3-----3--|
D|-----------------3-----3-----3----------------------------------|

e|----------------------------------------------------------------|
B|----------------------------------------------------------------|
G|----------------------------------------------------------------|
D|----------------------------------------------------------------|
A|-3~~~~~~~~~~~~~~~~~~~~~~~~~~~~~~~~~~~~~~~~~~~~~~~~~~~~~~~~~~~~~~|
D|----------------------------------------------------------------|

thank you if you have any questions, comments, or suggestions on how it should be played 
me at Stlmdthebeast27@aol.com
Tap to rate this tab
# A B C D E F G H I J K L M N O P Q R S T U V W X Y Z