Song name
# A B C D E F G H I J K L M N O P Q R S T U V W X Y Z

Jimmy Eat World - Gotta Be Somebodys Blues tab

-------------------------------------------------------------------------------
			     Gotta Be Somebody’s Blues – Jimmy Eat World
-------------------------------------------------------------------------------
Tabbed by: Nick Surra
Email: nicksurra@gmail.com
Portions taken from tab by: RossH
Email: rossh0@gmail.com

Tuning: Drop D

Intro

e|---------------------------------------------------------------------------|
B|---------------------------------------------------------------------------|
G|----------------------------------3-3-3-3-3-3-3-3-3-3-3-3-3-3-3-3----------|
D|-3-3-3-3-3-3-3-3-3-3-3-3-3-3-3-3--3-3-3-3-3-3-3-3-3-3-3-3-3-3-3-3----------|
A|-3-3-3-3-3-3-3-3-3-3-3-3-3-3-3-3--1-1-1-1-1-1-1-1-1-1-1-1-1-1-1-1----------|
D|-3-3-3-3-3-3-3-3-3-3-3-3-3-3-3-3-------------------------------------------|

e|---------------------------------------------------------------------------|
B|---------------------------------------------------------------------------|
G|-----------------------------------3-3-3-3-3-3-3-3-3-3-3-3-3-3-3-3---------|
D|-6-6-6-6-6-6-6-6--1-1-1-1-1-1-1-1--3-3-3-3-3-3-3-3-3-3-3-3-3-3-3-3---------|
A|-6-6-6-6-6-6-6-6--1-1-1-1-1-1-1-1--1-1-1-1-1-1-1-1-1-1-1-1-1-1-1-1---------|
D|-6-6-6-6-6-6-6-6--1-1-1-1-1-1-1-1------------------------------------------|


Verse X2

X2 (This line)
e|---------------------------------------------------------------------------|
B|---------------------------------------------------------------------------|
G|---------------------------------------------------------------------------|
D|-3-3-3-3-3-3-3-3-3-3-3-3-3-3-3-3--1-1-1-1-1-1-1-1--8-8-8-8-8-8-8-8---------|
A|-3-3-3-3-3-3-3-3-3-3-3-3-3-3-3-3--1-1-1-1-1-1-1-1--8-8-8-8-8-8-8-8---------|
D|-3-3-3-3-3-3-3-3-3-3-3-3-3-3-3-3--1-1-1-1-1-1-1-1--8-8-8-8-8-8-8-8---------|

Chorus

e|---------------------------------------------------------------------------|
B|---------------------------------------------------------------------------|
G|-----------------------------------3-3-3-3-3-3-3-3-3-3-3-3-3-3-3-3---------|
D|-6-6-6-6-6-6-6-6--1-1-1-1-1-1-1-1--3-3-3-3-3-3-3-3-3-3-3-3-3-3-3-3---------|
A|-6-6-6-6-6-6-6-6--1-1-1-1-1-1-1-1--1-1-1-1-1-1-1-1-1-1-1-1-1-1-1-1---------|
D|-6-6-6-6-6-6-6-6--1-1-1-1-1-1-1-1------------------------------------------|

e|---------------------------------------------------------------------------|
B|---------------------------------------------------------------------------|
G|---------------------------------------------------------------------------|
D|-6-6-6-6-6-6-6-6--1-1-1-1-1-1-1-1--3-3-3-3-3-3-3-3-3-3-3-3-3-3-3-3---------|
A|-6-6-6-6-6-6-6-6--1-1-1-1-1-1-1-1--3-3-3-3-3-3-3-3-3-3-3-3-3-3-3-3---------|
D|-6-6-6-6-6-6-6-6--1-1-1-1-1-1-1-1--3-3-3-3-3-3-3-3-3-3-3-3-3-3-3-3---------|


Verse
X2 (This line)
e|---------------------------------------------------------------------------|
B|---------------------------------------------------------------------------|
G|---------------------------------------------------------------------------|
D|-3-3-3-3-3-3-3-3-3-3-3-3-3-3-3-3--1-1-1-1-1-1-1-1--8-8-8-8-8-8-8-8---------|
A|-3-3-3-3-3-3-3-3-3-3-3-3-3-3-3-3--1-1-1-1-1-1-1-1--8-8-8-8-8-8-8-8---------|
D|-3-3-3-3-3-3-3-3-3-3-3-3-3-3-3-3--1-1-1-1-1-1-1-1--8-8-8-8-8-8-8-8---------|

Chorus

e|---------------------------------------------------------------------------|
B|---------------------------------------------------------------------------|
G|-----------------------------------3-3-3-3-3-3-3-3-3-3-3-3-3-3-3-3---------|
D|-6-6-6-6-6-6-6-6--1-1-1-1-1-1-1-1--3-3-3-3-3-3-3-3-3-3-3-3-3-3-3-3---------|
A|-6-6-6-6-6-6-6-6--1-1-1-1-1-1-1-1--1-1-1-1-1-1-1-1-1-1-1-1-1-1-1-1---------|
D|-6-6-6-6-6-6-6-6--1-1-1-1-1-1-1-1------------------------------------------|

e|---------------------------------------------------------------------------|
B|---------------------------------------------------------------------------|
G|---------------------------------------------------------------------------|
D|-6-6-6-6-6-6-6-6--1-1-1-1-1-1-1-1--3-3-3-3-3-3-3-3-3-3-3-3-3-3-3-3---------|
A|-6-6-6-6-6-6-6-6--1-1-1-1-1-1-1-1--3-3-3-3-3-3-3-3-3-3-3-3-3-3-3-3---------|
D|-6-6-6-6-6-6-6-6--1-1-1-1-1-1-1-1--3-3-3-3-3-3-3-3-3-3-3-3-3-3-3-3---------|

Bridge


e|---------------------------------------------------------------------------|
B|---------------------------------------------------------------------------|
G|------------------3-3-3-3-3-3-3-3------------------------------------------|
D|-1-1-1-1-1-1-1-1--3-3-3-3-3-3-3-3--3-3-3-3-3-3-3-3-3-3-3-3-3-3-3-3---------|
A|-1-1-1-1-1-1-1-1--1-1-1-1-1-1-1-1--3-3-3-3-3-3-3-3-3-3-3-3-3-3-3-3---------|
D|-1-1-1-1-1-1-1-1-------------------3-3-3-3-3-3-3-3-3-3-3-3-3-3-3-3---------|

e|---------------------------------------------------------------------------|
B|---------------------------------------------------------------------------|
G|------------------3-3-3-3-3-3-3-3------------------------------------------|
D|-1-1-1-1-1-1-1-1--3-3-3-3-3-3-3-3--3-3-3-3-3-3-3-3-3-3-3-3-3-3-3-3---------|
A|-1-1-1-1-1-1-1-1--1-1-1-1-1-1-1-1--3-3-3-3-3-3-3-3-3-3-3-3-3-3-3-3---------|
D|-1-1-1-1-1-1-1-1-------------------3-3-3-3-3-3-3-3-3-3-3-3-3-3-3-3---------|

Intro

e|---------------------------------------------------------------------------|
B|---------------------------------------------------------------------------|
G|----------------------------------3-3-3-3-3-3-3-3-3-3-3-3-3-3-3-3----------|
D|-3-3-3-3-3-3-3-3-3-3-3-3-3-3-3-3--3-3-3-3-3-3-3-3-3-3-3-3-3-3-3-3----------|
A|-3-3-3-3-3-3-3-3-3-3-3-3-3-3-3-3--1-1-1-1-1-1-1-1-1-1-1-1-1-1-1-1----------|
D|-3-3-3-3-3-3-3-3-3-3-3-3-3-3-3-3-------------------------------------------|

e|---------------------------------------------------------------------------|
B|---------------------------------------------------------------------------|
G|-----------------------------------3-3-3-3-3-3-3-3-3-3-3-3-3-3-3-3---------|
D|-6-6-6-6-6-6-6-6--1-1-1-1-1-1-1-1--3-3-3-3-3-3-3-3-3-3-3-3-3-3-3-3---------|
A|-6-6-6-6-6-6-6-6--1-1-1-1-1-1-1-1--1-1-1-1-1-1-1-1-1-1-1-1-1-1-1-1---------|
D|-6-6-6-6-6-6-6-6--1-1-1-1-1-1-1-1------------------------------------------|

Bridge X2


e|---------------------------------------------------------------------------|
B|---------------------------------------------------------------------------|
G|------------------3-3-3-3-3-3-3-3------------------------------------------|
D|-1-1-1-1-1-1-1-1--3-3-3-3-3-3-3-3--3-3-3-3-3-3-3-3-3-3-3-3-3-3-3-3---------|
A|-1-1-1-1-1-1-1-1--1-1-1-1-1-1-1-1--3-3-3-3-3-3-3-3-3-3-3-3-3-3-3-3---------|
D|-1-1-1-1-1-1-1-1-------------------3-3-3-3-3-3-3-3-3-3-3-3-3-3-3-3---------|

e|---------------------------------------------------------------------------|
B|---------------------------------------------------------------------------|
G|------------------3-3-3-3-3-3-3-3------------------------------------------|
D|-1-1-1-1-1-1-1-1--3-3-3-3-3-3-3-3--3-3-3-3-3-3-3-3-3-3-3-3-3-3-3-3---------|
A|-1-1-1-1-1-1-1-1--1-1-1-1-1-1-1-1--3-3-3-3-3-3-3-3-3-3-3-3-3-3-3-3---------|
D|-1-1-1-1-1-1-1-1-------------------3-3-3-3-3-3-3-3-3-3-3-3-3-3-3-3---------|

End

e|---------------------------------------------------------------------------|
B|---------------------------------------------------------------------------|
G|----------------------------------3-3-3-3-3-3-3-3-3-3-3-3-3-3-3-3----------|
D|-3-3-3-3-3-3-3-3-3-3-3-3-3-3-3-3--3-3-3-3-3-3-3-3-3-3-3-3-3-3-3-3----------|
A|-3-3-3-3-3-3-3-3-3-3-3-3-3-3-3-3--1-1-1-1-1-1-1-1-1-1-1-1-1-1-1-1----------|
D|-3-3-3-3-3-3-3-3-3-3-3-3-3-3-3-3-------------------------------------------|

e|---------------------------------------------------------------------------|
B|---------------------------------------------------------------------------|
G|---------------------------------------------------------------------------|
D|-6-6-6-6-6-6-6-6--1-1-1-1-1-1-1-1--8-8-8-8-8-8-8-8--3-3-3-3-3-3-3-3--------|
A|-6-6-6-6-6-6-6-6--1-1-1-1-1-1-1-1--8-8-8-8-8-8-8-8--3-3-3-3-3-3-3-3--------|
D|-6-6-6-6-6-6-6-6--1-1-1-1-1-1-1-1--8-8-8-8-8-8-8-8--3-3-3-3-3-3-3-3--------|
Tap to rate this tab
 
# A B C D E F G H I J K L M N O P Q R S T U V W X Y Z