Song name
# A B C D E F G H I J K L M N O P Q R S T U V W X Y Z

Jimmy Fallon - Flag Day tab

-----------------------------------------------------------------------------
			     Jimmy Fallon- Flag Day                         
------------------------------------------------------------------------------
Tabbed by:Chris Van Ekelenburg
Email:hola_paco69@hotmail.com


This song is very short!!!

Tuning:Standard

play chords continuously
e|------------------------------------------|
B|---------------------------3--------------|
G|-6----------------4--------3------------3-|
D|-6-------6--------2---4----3------3-----3-|
A|-4-------6--------2---4-----------3-----1-|
E|---------4------------2-----------1-------|

   Chorus
e|---------------------------|
B|---------------------------|
G|------------------------6--|
D|-4-4-4-4-6-6-6-6-6-6-6--6--|
A|-4-4-4-4-6-6-6-6-4-4-4--4--|
E|-2-2-2-2-4-4-4-4-4-4-4-----|
Tap to rate this tab
# A B C D E F G H I J K L M N O P Q R S T U V W X Y Z