Song name
# A B C D E F G H I J K L M N O P Q R S T U V W X Y Z

Jimmy Fallon - Balls In Your Mouth tab

This is a solo that I improved during a street performance of this song and can be 
along with the Chords. It's the basic melody to this soon to be famous protest song!

Tuning: Standard

e--------10-10-10/12-10-8-10--12-10-8-10--8h10p8p7---8-7-----------------|
B--8-8-8-------------------------------------------------8-8/10~---------|
G------------------------------------------------------------------------|
D------------------------------------------------------------------------|
A------------------------------------------------------------------------|
E------------------------------------------------------------------------|

e--------10-10-10/12-10-8-10--12-10-8-10--8h10p8p7---8-7-------------3---|
B--8-8-8-------------------------------------------------10-8~-------3---|
G--------------------------------------------------------------------4---|
D--------------------------------------------------------------------5---|
A--------------------------------------------------------------------5---|
E---------------------------------------------------------------15\--3---|


************************************

| /   slide up
| \   slide down
| h   hammer-on
| p   pull-off
| ~   vibrato
| +   harmonic
| x   Mute note
| b   Bend
| pb  Pre-bend
| br  Bend release
| pbr Pre-bend release
| brb Bend release bend

************************************
Tap to rate this tab
 
# A B C D E F G H I J K L M N O P Q R S T U V W X Y Z