Song name
# A B C D E F G H I J K L M N O P Q R S T U V W X Y Z

Jimmy Fallon - Its Happening To Me Acoustic tab

Acoustic Version 

First Verse:

e|--------------------------------------------------------|
B|--------------------------------------------------------|
G|--------------------------------------------------------|
D|---------------------------------------4-5---5----------|
A|---------------------------------------2-3-5-3----------|
E|-2-2-2-2-2-2-3-3-3-3-4-4-4-4-5-4-5-4-3------------------|

Chorus:

e|----------------------------------------------------------0---0---0-----|
B|----------------------------------------------------------0---0---0-----|
G|----------------------------------------------------------0---0---0-----|
D|----------------------------------------------------------0---0---0-----|
A|-3-3-3-3-3-3-3-3--5-5-5-5-5-5-5-5--4-4-4-4-4-4-4-4--------0---0---0-----|
E|-1-1-1-1-1-1-1-1--3-3-3-3-3-3-3-3--2-2-2-2-2-2-2-2------3-0-3-0-3-0-----|

Solo ( Final Verse ):
e|-9-9-10-11-12-11-10-9-9-9-10-11-12-----------------------------------0--|
B|-----------------------------------8-8-9-10-11-10-9-8-8-8-9-10-11----0--|
G|---------------------------------------------------------------------0--|
D|------------------------------------------------------------------0--0--|
A|------------------------------------------------------------------0--0--|
E|------------------------------------------------------------------0--0--|
Tap to rate this tab
 
# A B C D E F G H I J K L M N O P Q R S T U V W X Y Z