Song name
# A B C D E F G H I J K L M N O P Q R S T U V W X Y Z

Jimmy Needham - Firefly tab

This isn't exact, i know,  but it's close enough...
If you listen to the song at all, you'll catch on to the strum pattern...

/ - slide
h - hammer on
p - pull off
x -mute


e|----------------x---x-x---x-x----------------------------------------|
B|----------------6---6-6---6-6----------------------------------------|
G|----------------6---6-6---6-6----------------------------------------|
D|----------------6---6-5---5-5----------------------------------------|
A|--------4h6/8---x---x-x---x-6-----6h7p6-------------------4----------|
E|---4/6----------6---6-6---6-x------------9-6-9-------4--6------------|

--x---x-x---x-x------------------------------------------|
--6---6-6---6-6------------------------------------------|
--6---6-6---6-6------------------------------------------|
--6---6-5---5-5------------------------------------------|
--x---x-x---x-6----6h7p6-----------------4---------------|
--6---6-6---6-x-----------9-6-9-----4--6-----------------|

-Jared
Tap to rate this tab
# A B C D E F G H I J K L M N O P Q R S T U V W X Y Z