Song name
# A B C D E F G H I J K L M N O P Q R S T U V W X Y Z

Jimmy Needham - Fence Riders tab

Tab for the Electric part (since nobody ever tabs the lead parts)

Standard Tuning

Not 100% sure, so if you know how it should go, please tell me.

Main Riff (Second part of intro and second part of chorus)

e---0--0--0-------0--0--0-3-|
B--1--1------3h5-1--1-----3-|
G-2--0---0--4---2--0---0--0-|
D-------3--5----------3---0-|
A-------------------------2-|
E-------------------------3-|

Or something like that

Outro (basically the high harmony of what Jimmy is doing)

e------------------|
B------------------|
G------5--9-7-5/---|
D-7-5h7----------7-|
A------------------|
E------------------|
Tap to rate this tab
# A B C D E F G H I J K L M N O P Q R S T U V W X Y Z