Song name
# A B C D E F G H I J K L M N O P Q R S T U V W X Y Z

Jimmy Needham - Light Of Day tab

-----------------------------------------------------------------------------
                          Light of Day - Jimmy Needham
-----------------------------------------------------------------------------
Tabbed by:
E-mail:austinsnell@sbcglobal.net

Tuning: Standard


Intro
e|-2/4----------------------------------------------------------------------|
B|------2/4----------------------4h5--4-------------------------------------|
G|-2/4---------4h6--6-------4h6-----------4h6--4----------------------------|
D|------2/4----------------------------------------4h6----------------------|
A|-------------0------------0--------------------------------------6--9-----|
E|-------------------------------------------------0---------------7--11----|

e|-2/4----------------------------------------------------------------------|
B|------2/4----------------------4h5--4------------------4h5p4--------------|
G|-2/4---------4h6--6-------4h6-----------4h6--4---------4h6p4-----4h6p4----|
D|------2/4----------------------------------------4h6----------6--4h6p4--2-|
A|-------------0------------0-----------------------------------------------|
E|-------------------------------------------------0------------------------|

e|-----|
B|-----|
G|-----|
D|--4--|
A|-----|
E|--6--|

Verse I
                 {Quickly slide up}
e|--0-----0--------0------------------0-----0--------0---7--------7---------|
B|--0---------0----0---9--------9-----0---------0----0----------------------|
G|--2----2---2-----1-----9------------2----2---2-----1-----9--------9-------|
D|--2--------------2----------9---9---2--------------2----------9-----------|
A|--0--------------2--------6---------0--------------2--------6-------------|
E|-----------------0---------------------------------0----------------------|

e|--0-----0--------0------------------2--------2-----2---2-2-2-22-----------|
B|--0---------0----0---9--------9-----2--------------4---4-4-4-44-----------|
G|--2----2---2-----1-----9------------3----3-----3---2---2-2-2-22-----------|
D|--2--------------2----------9---9---2--------------4---4-4-4-44-----------|
A|--0--------------2--------6---------4--4---4-------2---2-2-2-22-----------|
E|-----------------0------------------2-------------------------------------|


Chorus
Strum chords rhythmically
   |------2X--------|   |S1X|                  |S1X|
e|--0----2----0----0--------------0----0----0----0--|
B|--0----2----0----0--------------0----0----2----1--|
G|--1----2----2----4-----4-5------6----7----2----2--|
D|--2----4----2----4-----4-5------6----7----2----2--|
A|--2----4----0----2-----2-3------4----5----0----0--|
E|--0----2------------------------------------------|

                                      {Transition I}
e|--0--2--4----------0--0---0-------0--0-------0--0----0--|
B|--0--2--4----------0--6---0-------0--0-------0--0----0--|
G|--1--2--4----------7--6---1-------1--1-------7--6----1--|
D|--2--4--6----------7--6---2-------1--2-------7--6----2--|
A|--2--4--6----------5--4---2-------2--2-------5--4----2--|
E|--0--2--4-----------------0-------0--0---------------0--|

Verse II
Strum rhythmically
   |----3X----|
e|--0----0--0-------2----2--|
B|--0----0--0-------2----4--|
G|--2----1--1-------3----2--|
D|--2----2--1-------2----4--|
A|--0----2--2-------4----2--|
E|-------0--0-------2-------|

[Chorus]

Bridge                    Transition II
Strum rhythmically
   |--3X--|
e|--4----4------0-----2--|--0----2----0----0--|
B|--4----5------2-----4--|--0----2----0----0--|
G|--4----6------2-----4--|--1----2----2----4--|
D|--6----6------2-----4--|--2----4----2----4--|
A|--6----4------0-----2--|--2----4----0----2--|
E|--4--------------------|--0----2------------|

Final Chorus
   |----------S1X-----------|
   |------2X--------|
e|--0----2----0----0--------------0----0----0----0--|
B|--0----2----0----0--------------0----0----2----1--|
G|--1----2----2----4-----4-5------6----7----2----2--|
D|--2----4----2----4-----4-5------6----7----2----2--|
A|--2----4----0----2-----2-3------4----5----0----0--|
E|--0----2------------------------------------------|

                                 |-----------S1X------------|
e|--0--2--4----------0--0---0--|--0--2--4----------0--0---0--|
B|--0--2--4----------0--6---0--|--0--2--4----------0--6---0--|
G|--1--2--4----------7--6---1--|--1--2--4----------7--6---1--|
D|--2--4--6----------7--6---2--|--2--4--6----------7--6---2--|
A|--2--4--6----------5--4---2--|--2--4--6----------5--4---2--|
E|--0--2--4-----------------0--|--0--2--4-----------------0--|

************************************

| /   slide up
| \   slide down
| h   hammer-on
| p   pull-off
| ~   vibrato
| +   harmonic
| x   Mute note
| b   Bend
| pb  Pre-bend
| br  Bend release
| pbr Pre-bend release
| brb Bend release bend
| S1X Strum Once
************************************
Tap to rate this tab
# A B C D E F G H I J K L M N O P Q R S T U V W X Y Z