Jimmy Page - The Weight tab

|----------------------------7-8-7--------------10------10-----10----10----10-|
|----8---10s12----------8-10-------10b12-8-8-8---X--8-8--X---8--X--8--X--8--X-|
|----------------------9------------------------------------------------------|
|-7s9--9-------12----10-------------------------------------------------------|
|------------------10---------------------------------------------------------|
|-----------------------------------------------------------------------------|

|----------------------------------|
|---7-8-10--7h8p7---7---7--10---8--|
|--7--------------9---9------------|
|-X--------------------------------|
|----------------------------------|
|----------------------------------|

noam taichman  taichman2@gmail.com
Tap to rate this tab
 
# A B C D E F G H I J K L M N O P Q R S T U V W X Y Z