Song name
# A B C D E F G H I J K L M N O P Q R S T U V W X Y Z

Jimmy Page - Embryo No1 tab

Jimmy Page uses a slide, obviously, and this tab isn't the best, but I couldn't find any 
tabs on it so I wrote my own. This is how I learned it, and it seems quite right. It 
may not be the best or the most accurate, but just play around and you'll find it.


D-----------------------------0-----------------------]
A-----------------------------0-----------------------]
F#----------------------------0-----------------------]
D-----10s12---10s12---10s12---------------------------]
A-----10s12---10s12---10s12---------------------------]
D-----10s12---10s12---10s12---------------------------]
-
D-------------------------0---------------------------]
A-------------------------0---------------------------]
F#------------------------0---------------------------]
D-----7---5---4---5---7---0---------------------------]
A-----7---5---4---5---7---0---------------------------]
D-----7---5---4---5---7---0---------------------------]
Tap to rate this tab
# A B C D E F G H I J K L M N O P Q R S T U V W X Y Z