Song name
# A B C D E F G H I J K L M N O P Q R S T U V W X Y Z

Jimmy Page - Embryo No1 tab

-------------------------------------------------------------------------------
                             Embryo No.1 - Jimmy Page
-------------------------------------------------------------------------------
Tabbed by: Christian McKee
Email:mckee_christian@yahoo.com

Tuning: DADF#AD, open D tuning

-------------------------------------------------------------------------------
 
This is an instrumental piece by Jimmy Page that intros It Might Get Loud.
This piece is derived mainly from the unique sound of open D tuning and Page's
style and technique concerning slide guitar. While it is not difficult to play
it is difficult to emulate; getting that sound from the amp and Page's slide guitar
style are one of a kind. 

-------------------------------------------------------------------------------

There are three main riffs and the rest is improv

Riff 1 - The Hook

            X         X         X
D|---------------------------------0-----|
A|---------------------------------0-----|
F|---------------------------------0-----|
D|--10-/-12---10-/-12---10-/-12----0-----| X 2
A|--10-/-12---10-/-12---10-/-12---(0)----|
D|--10-/-12---10-/-12---10-/-12---(0)----|


Listen to the song, hopefully you can figure out the muted strums and slides yourself
but I'm gonna try as best I can to tab this part out for you; you can either play the 
D, D + A, or D + A + D strings. Also listen for the timing, it is essential to the piece


Riff 2 - The Meat

D|---------------------------------------------------------------------------|
A|---------------------------------------------------------------------------|
F|---------------------------------------------------------------------------|
D|--5-/-7---0---4-/-5---0---2-/-3---0---3-/-4---0---4-/-5----0---------------|
A|--5-/-7---0---4-/-5---0---2-/-3---0---3-/-4---0---4-/-5--------------------|
D|--5-/-7---0---4-/-5---0---2-/-3---0---3-/-4---0---4-/-5-------0------------|

Riff 3 - The Twang

       Heavy vibrato
       ~~~~~~~~~~ - small pause -       
D|-------------------------------------------------------2-/-3--0------------|
A|--2-/-3--3---3------------------3--3--3----2-/-3--0------------------------|
F|--2-/-3----3---3----------------3--3--3------------------------------------|
D|---------------------------------------------------------------------------|
A|---------------------------------------------------------------------------|
D|---------------------------------------------------------------------------|

The improv is easy to pick out, a lot of it is sliding in key along the 4th (high D)
string with intermittent notes on the 6th (low D) string. As well as some two string
sliding on the 2nd (high A) string and 3rd (F#) string. Having fun with this
is necessary to making this song unique so play with some licks.

Please have fun with this, get a drummer, a bassist and play around, it's a great song
to get into slide guitar.

If you have any questions email me and I'll be able to shoot over some licks to help 
supplement the song or answer any questions!

mckee_christian@yahoo.com

Chris


************************************

| /   slide up
| \   slide down
| h   hammer-on
| p   pull-off
| ~   vibrato
| +   harmonic
| x   Mute note
| b   Bend
| pb  Pre-bend
| br  Bend release
| pbr Pre-bend release
| brb Bend release bend

************************************
Tap to rate this tab
 
# A B C D E F G H I J K L M N O P Q R S T U V W X Y Z