Guitaretab - guitar tabs
Song name
# A B C D E F G H I J K L M N O P Q R S T U V W X Y Z

Jimmy Page - Thank You Live tab

THANK YOU
     Performed by Fred Durst and Jimmy Page
       at Europe Music Awards 2001

Riff& Intro:
This is also the basically Riff of this song. It was played on an acoustic
Six String, but on a 12 String it sounds a bit more like Led Zeppelin ;)

INTRO:
D                     C(add D)                G
---3-2-0-0-0h2-2-0------3-2-0-0-2---2-0-3------3-0-3-2-0-0-2--2-0-2-|
-3-3-3-3-3-3-3-3-3----3-3-3-3-3-3---3-3-0------3-3-3-3-3-3-3--3-3-3-|
-2-2-2-2-2-2-2-2-2----0-0-0-0-0-0---0-0-0------0-0-0-0-0-0-0--0-0-0-|
-0--------------------0------------------------0--------------------|
-------------------3-----------------------0h2----------------------|
--------------------------------------------------------------------|
D              C(add D)     G                       D
If the sun refused to shine,     i would still be loving you
D                      C           G                     D
When mountains crumble to the sea     there'll still be you and me


INTRO
(Fred:" Ladies And Gentleman Mister Jimmie Page the one and only")
SOLO (i had no idea about the solo in this live version
       so i added the original solo from Led zeppelin)
[ Tab from: http://www.guitaretab.com/j/jimmy-page/42918.html ]
played on a Gibson Doubleneck (on the 12string neck-clean)
|---------------------------------|-------7-------------------------|
|---------------------------------|-7-8-10-10-8-7---7-----------7-8-|
|-2-------------------4-6-7---7-9-|---------------9---9-7-6-7-9-----|
|-------------4-5-7---------------|---------------------------------|
|---------------------------------|---------------------------------|
|---------------------------------|---------------------------------|

|-----7---------------------------7-|---------5-7-----------5-7---5--------|
|-------10-10-8-8--(8)--7-8-10------|----5h7h8---------5h7h8-------8-7---8-|
|-----------------------------------|-6h7-----------6h7--------------------|
|-----------------------------------|--------------------------------------|
|-----------------------------------|--------------------------------------|
|-----------------------------------|--------------------------------------|

|-------------------------------------|---------------------------------|
|---8-8-8-7-7-7-----------------------|---------------------------------|
|---------------------------------7-R-|-7-------7-6-7-6-4-6---4---------|
|---------------------------7-9-------|-0-------------------7---5-7-4-5-|
|-------------------------------------|---------------------------------|
|-------------------------------------|---------------------------------|

|---------------------------------|-------------------7-5-----------|
|---------------------------------|-------------5-7-8-----8-7-5-7-8-|
|---------------------------------|-------4-6-7---------------------|
|-5---4-------------------4-5-7---|-----7---------------------------|
|---7---7-5-------5-4-5-7---------|---------------------------------|
|---------------------------------|---------------------------------|

|---------------------------------|
|-8-7-7---7-------8-7-7---8-7-7---|
|---------------------------------|
|---------------------------------|
|---------------------------------|
|---------------------------------|
Related for Thank You Live tab