Song name
# A B C D E F G H I J K L M N O P Q R S T U V W X Y Z

Jimmy Palikat - Anak Kampung tab

E||--9----7----9----7----|--5----5----|--9----7----9----7----|--5----7----|
B||----------------------|------------|----------------------|------------|
G||----------------------|------------|----------------------|------------|
D||----------------------|------------|----------------------|------------|
A||----------------------|------------|----------------------|------------|
E||----------------------|------------|----------------------|------------|


                                                                    
--9----7----9----7----|--5----7--------7----|--9----7----9----7----|
----------------------|---------------------|----------------------|
----------------------|---------------------|----------------------|
----------------------|---------------------|----------------------|
----------------------|---------------------|----------------------|
----------------------|---------------------|----------------------|


                                                                        
--5---------|------------5---------|------------|------------5---------|
-------7----|--5----7---------7----|--5----5----|--5----7---------7----|
------------|----------------------|------------|----------------------|
------------|----------------------|------------|----------------------|
------------|----------------------|------------|----------------------|
------------|----------------------|------------|----------------------|


                                                            
-------7--------7----|--7----9----12----9----|--7----5----||
--5------------------|-----------------------|------------||
---------------------|-----------------------|------------||
---------------------|-----------------------|------------||
---------------------|-----------------------|------------||
---------------------|-----------------------|------------||

created by-hishamYabedabeduu
(FB:habbatus88@yahoo.com.my)
Tap to rate this tab
# A B C D E F G H I J K L M N O P Q R S T U V W X Y Z