Song name
# A B C D E F G H I J K L M N O P Q R S T U V W X Y Z

Jimmy Reed - Shame Shame Shame tab

Jimmy Reed
Shame Shame Shame - Blues Guitar Box
Tabbed by Gonseg


intro:


e||--12-12-12-12-12-12---7-7-7-7-7-7---5-5-5-5-5-5--------------------|
B||--12-12-12-12-12-12---7-7-7-7-7-7---5-5-5-5-5-5------9-9------7-7--|
G||--13-13-13-13-13-13---8-8-8-8-8-8---6-6-6-6-6-6--------------------|
D||--14-14-14-14-14-14---9-9-9-9-9-9---7-7-7-7-7-7--7/9------5/7------|
A||--14-14-14-14-14-14---9-9-9-9-9-9---7-7-7-7-7-7--------------------|
E||--12------------------7-------------5------------------------------|


rythm:

          x4                    x2                 x2
e||-------------------|-------------------|-------------------|
B||-------------------|-------------------|-------------------|
G||-------------------|-------------------|-------------------|
D||-------------------|--2-2-4-4-5-5-4-4--|-------------------|
A||--2-2-4-4-5-5-4-4--|--0-0-0-0-0-0-0-0--|--2-2-4-4-5-5-4-4--|
E||--0-0-0-0-0-0-0-0--|-------------------|--0-0-0-0-0-0-0-0--|

e||----------------------------------------------------------------------|
B||----------------------------------------------------------------------|
G||----------------------------------------------------------------------|
D||--4-4-6-4-4-4-6-4---2-2-4-4-5-5-4-4-------------------------2-2-4-4---|
A||--2-2-2-2-2-2-2-2---0-0-0-0-0-0-0-0---2-2-4-4-5-5-4-4---2-2-0-0-2-2---|
E||--------------------------------------0-0-0-0-0-0-0-0---0-0-----------|


harmonica solo:

e||----------------------------------------------------------------|
B||--------12-15--12-15-12-------------12-15--12-15-12----12-------|
G||--12-14-----------------12-9--12-14-----------------14----14-9--|
D||----------------------------------------------------------------|
A||----------------------------------------------------------------|
E||----------------------------------------------------------------|


e||-------------------------------------------------------------------|
B||--10h12-10------------------10/12-10----10/12-10------12-10-12-10--|
G||------------12-9-12-9-12-9-----------12----------12-9--------------|
D||-------------------------------------------------------------------|
A||-------------------------------------------------------------------|
E||-------------------------------------------------------------------|


e||-----------------------------------------------------------|
B||--12-10----------------------------------------------------|
G||--------14-12-----12/14-9-12-9-12-9--12-14-16-12h14p12-----|
D||--------------14---------------------------------------14--|
A||-----------------------------------------------------------|
E||-----------------------------------------------------------|
Tap to rate this tab
# A B C D E F G H I J K L M N O P Q R S T U V W X Y Z