Song name
# A B C D E F G H I J K L M N O P Q R S T U V W X Y Z

Jinkaku Radio - Buranko tab

NOTE:
I'm pretty sure all the chords are right but the order may not be right, as in  I 
missed a line here or there (it seems kind of short!)

Jinkaku Radio Official website:
http://www.jinkakuradio.com/

-----------------------------------------------------------------------------

Artist: Jinkaku Radio
Song: Buranko (acoustic vers.)

Chords:
   Am  C   G   Csus4
e  0   0   3   0
B  1   1  (3)  1
G  2   0   0   2
D  2   2   0   3
A  0   3   2   3
E  -   -   3   -

Intro:
Am C Csus4 (x3)

Verse 1:
Am G
C G Csus4
C G Am Csus4
C G Csus4

Bridge:
   C               G               Am
e|-0--------0------3--------3------0--------0-------|
B|-1------1---1----0------0---0----1------1---1-----|
G|-0----0-------0--0----0-------0--2----2-------2---|  x2
D|-2--2------------0--0------------2--2-------------|
A|-3---------------2---------------0----------------|
E|-----------------3--------------------------------|

After playing two times play:
   C
e|-0--------0------|
B|-1------1---1----|
G|-0----0-------0--|
D|-2--2------------|
A|-3---------------|
E|-----------------|

Verse 2
C Am C Csus4
C G Csus4
C Am Csus4 G
C Am Csus4 G
C Am Csus4 G

Outro
C G Am Csus4
C G Am Csus4 C
Tap to rate this tab
# A B C D E F G H I J K L M N O P Q R S T U V W X Y Z