Guitaretab - guitar tabs
Song name
# A B C D E F G H I J K L M N O P Q R S T U V W X Y Z

Jinxed - Public Static Final tab

----------------------------------------------------------------------------
			PUBLIC STATIC FINAL - Jinxed
----------------------------------------------------------------------------
Tabbed by: Britt	
Email: luckyleprechaun23@hotmail.com

Tuning: Standard

This is a pretty easy song, the strumming is all pretty much down strokes, just listen
to it and you'll get it.

Intro/Verse  (Play each note 16x, 2x through)

e|------------------------------------------------------------------------|
B|------------------------------------------------------------------------|
G|------------------------------------------------------------------------|
D|------------------------------------------------------------------------|
A|-0--9--7--5-------------------------------------------------------------|
E|------------------------------------------------------------------------|
[ Tab from: http://www.guitaretab.com/j/jinxed/53118.html ]
    
Pre-Chorus (4x)
e|------------------------------------------------------------------------|
B|------------------------------------------------------------------------|
G|------------------------------------------------------------------------|
D|----7-------7--------9--------9--------7--------7--------7---------7----|
A|9-9--9---9-9--9--7-7--7---7-7--7---5-5--5---5-5--5---5-5--5---5-5--5--|
E|------------------------------------------------------------------------|

Chorus (play each note 8x, 4x through)   and at the end of 8x play this
e|-------------------------|----------------------------------------------|
B|-------------------------|----------------------------------------------|
G|-------------------------|-----7----------------------------------------|
D|--7---7---7--------------|--7--7--7-------------------------------------|
A|--9---7---5--------------|--5--5--5-------------------------------------|
E|-------------------------|----------------------------------------------|

Verse 2 (each note 16x, 2x through)
e|------------------------------------------------------------------------|
B|------------------------------------------------------------------------|
G|------------------------------------------------------------------------|
D|-7-7-7-7----------------------------------------------------------------|
A|-0-9-7-5----------------------------------------------------------------|
E|------------------------------------------------------------------------|

Then the chorus notes keep repeating through the 3rd verse.


This is my first tab, so isn't tabbed out perfectly...but it's the major notes.
Just listen to the song for the extra little things, all of the notes are in this
general vicinity.  Any questions or corrections, email me, I might be able to help.
Related for Public Static Final tab