Song name
# A B C D E F G H I J K L M N O P Q R S T U V W X Y Z

Jireh Lim - Buko tab

e|-10/12-10-9----------------10/12--10-9-----------------------|
B|-------------10/12--14-14---------------10-12-12/14-12-10----|
G|-------------------------------------------------------------|
D|-------------------------------------------------------------|
A|-------------------------------------------------------------|
E|-------------------------------------------------------------|


e|-10/12-10-9----------------10/12--10-9-----------------------|
B|-------------10/12--14-14---------------10-12-12/14-12-10----|
G|-------------------------------------------------------------|
D|-------------------------------------------------------------|
A|-------------------------------------------------------------|
E|-------------------------------------------------------------|
Tap to rate this tab
# A B C D E F G H I J K L M N O P Q R S T U V W X Y Z