Guitaretab - guitar tabs
Song name
# A B C D E F G H I J K L M N O P Q R S T U V W X Y Z

Jireh Lim - Buko tab

Tab: Jireh Lim - Buko Intro(Easier)
Tabbed By: Arthur James Felipe
Tuning: Standard(EADGBe)


[ Tab from: http://www.guitaretab.com/j/jireh-lim/321791.html ]
E|--12--10-9-----------------12--10-9----------------------------------|
B|------------10--12---14-14--------------10--12-14--12--10----14--14--|
G|---------------------------------------------------------------------|
D|---------------------------------------------------------------------|
A|---------------------------------------------------------------------|
E|---------------------------------------------------------------------|

E|--12--10-9-----------------12--10-9------------------------|
B|------------10--12---14-14--------------10--12-14--12--10--|
G|-----------------------------------------------------------|
D|-----------------------------------------------------------|
A|-----------------------------------------------------------|
E|-----------------------------------------------------------|

I ♥ HG
Related for Buko tab
Buko chords by Jireh Lim