Song name
# A B C D E F G H I J K L M N O P Q R S T U V W X Y Z

Jireh Lim - Bukobuhay Ko tab

e|-14~-12-11------11-11-12-14--12-11----------------------------------|
B|-~--------12-14-------------------12-14-16-14-11-11-12--------------|
G|--------------------------------------------------------------------|
D|--------------------------------------------------------------------|
A|--------------------------------------------------------------------|
E|--------------------------------------------------------------------|


e|-14-12-11-------11-11-12-14--12-11------------------------------------|
B|----------12-14-------------------12-14-16-14-11-11-12----------------|
G|----------------------------------------------------------------------|
D|----------------------------------------------------------------------|
A|----------------------------------------------------------------------|
E|----------------------------------------------------------------------|
Tabbed by: arvin r. buenaventura
Buhay ko (buko)

Cp:4th
G-Bm-Am-D 4x
Am-Bm 4x D
G-Bm-Am-D 2x ľAm-Bm 2x Am-D
Tap to rate this tab
 
# A B C D E F G H I J K L M N O P Q R S T U V W X Y Z