Song name
# A B C D E F G H I J K L M N O P Q R S T U V W X Y Z

Jireh Lim - Buko tab

ngayon lang uli ako nagkapa.. so i hope guys makatulong.. 
i've searched for this online and look for the close one..
so i just made my own kapa.. 

e|--12-10-9-------------9-9-12-10-9---------------------|
B|----------10-12-------------------10-12-12s14-12-10---|
G|------------------------------------------------------|
D|------------------------------------------------------|
A|------------------------------------------------------|
E|------------------------------------------------------|

e|-9-9-12-10-9-------------9-9-12-10-9---------------------|
B|-------------10-12-------------------10-12-12s14-12-10---|
G|---------------------------------------------------------|
D|---------------------------------------------------------|
A|---------------------------------------------------------|
E|---------------------------------------------------------|

subscribe on my youtube channel.. EUQI05.. thank you..
Tap to rate this tab
# A B C D E F G H I J K L M N O P Q R S T U V W X Y Z