Song name
# A B C D E F G H I J K L M N O P Q R S T U V W X Y Z

Jireh Lim - Buko tab

e|-5-3-2--0--2-3-5-3-2--0-2-0-------------|
B|------3-------------3------3------------|
G|----------------------------------------|
D|----------------------------------------|
A|-0~-----4~-----2~-----------------------|
E|----------------------0~----------------|

e|-5-3-2--0--2-3-5-3-2--0-2-0-------------|
B|------3-------------3------3------------|
G|----------------------------------------|
D|----------------------------------------|
A|-0~-----4~-----2~-----------------------|
E|----------------------0~----------------|
Tap to rate this tab
# A B C D E F G H I J K L M N O P Q R S T U V W X Y Z