Song name
# A B C D E F G H I J K L M N O P Q R S T U V W X Y Z

Jireh Lim - Buko tab

e|-----10--11---11/14---11---10-------------------------------------|
B|--------------------------------11---11/14------------------------|
G|------------------------------------------------------------------|
D|------------------------------------------------------------------|
A|------------------------------------------------------------------|
E|------------------------------------------------------------------|

e|-----10--11---11/14---11---10-------------------------------------|
B|--------------------------------11---11/14---14/16---14---11------|
G|------------------------------------------------------------------|
D|------------------------------------------------------------------|
A|------------------------------------------------------------------|
E|------------------------------------------------------------------|

e|-----10--11---11/14---11---10-------------------------------------|
B|--------------------------------11---11/14------------------------|
G|------------------------------------------------------------------|
D|------------------------------------------------------------------|
A|------------------------------------------------------------------|
E|------------------------------------------------------------------|

e|-----10--11---11/14---11---10-------------------------------------|
B|--------------------------------11---11/14---14/16---14---11--10--|
G|------------------------------------------------------------------|
D|------------------------------------------------------------------|
A|------------------------------------------------------------------|
E|------------------------------------------------------------------|

very basic. 

Buhay Ko - Shammy Buenaventura
Tap to rate this tab
# A B C D E F G H I J K L M N O P Q R S T U V W X Y Z