Song name
# A B C D E F G H I J K L M N O P Q R S T U V W X Y Z

Jireh Lim - Buko tab

capo on 2nd fret

for the chords of the song, transpose nyo na lang yung gawa ng ibang author..


e|-10-8-7----------------|
b|-0------8-10(let ting)-|
g|-0---------------------|
d|-0---------------------|
a|-----------------------|
E|-----------------------|

e|-7-8-10-8-7--------------|
b|------------8-10-12-10-8-|
g|-------------------------|
d|-------------------------|
a|-------------------------|
E|-------------------------|

e|-7-8-10-8-7----------------|
b|------------8-10(let ring)-|
g|---------------------------|
d|---------------------------|
a|---------------------------|
E|---------------------------|

e|-7-8-10-8-7-------------------------------|
b|------------8-10-10s12-10-8---8(let ring)-|
g|------------------------------------------|
d|------------------------------------------|
a|------------------------------------------|
E|------------------------------------------|
Tap to rate this tab
 
# A B C D E F G H I J K L M N O P Q R S T U V W X Y Z