Song name
# A B C D E F G H I J K L M N O P Q R S T U V W X Y Z

Jireh Lim - Buko tab

INTRO:

e|-12-10-9--------------------9-9-12-10-9-----------------------|
B|----------10-12---------------------------10-12-12^14^12-10---|
G|--------------------------------------------------------------|
D|--------------------------------------------------------------|
A|--------------------------------------------------------------|
E|--------------------------------------------------------------|

e|-9-9-12-10-9--------------------9-9-12-10-9-------------------|
B|--------------10-12--------------------------10-12-12^14^12-10|
G|--------------------------------------------------------------|
D|--------------------------------------------------------------|
A|--------------------------------------------------------------|
E|--------------------------------------------------------------|

VERSE I:

e|-9------------------------------------------------------------|
B|---12-10-10-12-14-----10-10-14-12-12-10-10--10-12-12-12-------|
G|--------------------------------------------------------------|
D|--------------------------------------------------------------|
A|--------------------------------------------------------------|
E|--------------------------------------------------------------|

e|-------------------14-12--9-9-12-10-9-------------------------|
B|-14-12-10--10-10----------------------10--10-10-12-12-10-12---|
G|--------------------------------------------------------------|
D|--------------------------------------------------------------|
A|--------------------------------------------------------------|
E|--------------------------------------------------------------|

e|---------------------------------------------------------------|
B|14-12-10--10-12-14-12--10-14-12-12-10-10-12--10-14-12-12-10-12-|
G|---------------------------------------------------------------|
D|---------------------------------------------------------------|
A|---------------------------------------------------------------|
E|---------------------------------------------------------------|

e|---------------14-12---9-9-12-10-9-----------------------------|
B|-10-10-10-10------------------------10-10-10-10-12-12----------|
G|---------------------------------------------------------------|
D|---------------------------------------------------------------|
A|---------------------------------------------------------------|
E|---------------------------------------------------------------|

Verse 2: "hindi ko man alam kung nasan ka..."

e|---------------------------------------------------------------|
B|-10-14-12-12-10-10----10-10-12-12-12---------------------------|
G|---------------------------------------------------------------|
D|---------------------------------------------------------------|
A|---------------------------------------------------------------|
E|---------------------------------------------------------------|

e|---------------------------------------------------------------|
B|-10-14-12-12-10-10----10-10-12-12------------------------------|
G|---------------------------------------------------------------|
D|---------------------------------------------------------------|
A|---------------------------------------------------------------|
E|---------------------------------------------------------------|

e|---------------------------------------------------------------|
B|-10-14-12-12-10-10----10-10-12-12-12---------------------------|
G|---------------------------------------------------------------|
D|---------------------------------------------------------------|
A|---------------------------------------------------------------|
E|---------------------------------------------------------------|

e|---------------------------------------------------------------|
B|-10-14-12-12-10-10-----12-10-----------------------------------|
G|--------------------9------------------------------------------|
D|---------------------------------------------------------------|
A|---------------------------------------------------------------|
E|---------------------------------------------------------------|

CHORUS:

e|-9-9-12-10-9--------------------9-9-12-10-9-------------------|
B|--------------10-12--------------------------10-12--14--12----|
G|--------------------------------------------------------------|
D|--------------------------------------------------------------|
A|--------------------------------------------------------------|
E|--------------------------------------------------------------|

e|-9-9-12-10-9--------------------9-9-12-10-9-------------------|
B|--------------10-12--------------------------10-12--14--12----|
G|--------------------------------------------------------------|
D|--------------------------------------------------------------|
A|--------------------------------------------------------------|
E|--------------------------------------------------------------|

e|-----------------------------12-------------------------------|
B|-14-12-10----10-10-10-10-14------14-12------------------------|
G|--------------------------------------------------------------|
D|--------------------------------------------------------------|
A|--------------------------------------------------------------|
E|--------------------------------------------------------------|

e|-----------------------------12-------------------------------|
B|-14-12-10----10-10-10-10-14------14-12------------------------|
G|--------------------------------------------------------------|
D|--------------------------------------------------------------|
A|--------------------------------------------------------------|
E|--------------------------------------------------------------|

e|--------12----------------------------------------------------|
B|-10-14------12------10-14-10-10-------------------------------|
G|--------------------------------------------------------------|
D|--------------------------------------------------------------|
A|--------------------------------------------------------------|
E|--------------------------------------------------------------|
Tap to rate this tab
# A B C D E F G H I J K L M N O P Q R S T U V W X Y Z