Song name
# A B C D E F G H I J K L M N O P Q R S T U V W X Y Z

Jireh Lim - Buko tab

Buko – Jireh Lim


INTRO:A-C#m-Bm-E(2x)
OR
e|--12-10-9-------------9-9-12-10-9---------------------|
B|----------10-12-------------------10-12-12s14-12-10---|
G|------------------------------------------------------|
D|------------------------------------------------------|
A|------------------------------------------------------|
E|------------------------------------------------------|

e|-9-9-12-10-9-------------9-9-12-10-9---------------------|
B|-------------10-12-------------------10-12-12s14-12-10---|
G|---------------------------------------------------------|
D|---------------------------------------------------------|
A|---------------------------------------------------------|
E|---------------------------------------------------------|


VERSE1:
A       C#m
Naalala ko pa

Bm                  E
Nung nililigawan pa lamang kita

A              C#m
Dadalaw tuwing gabi

Bm                   E
Masilayan lamang ang ‘yong mga ngiti

A        C#m
At Ika’y sasabihan
Bm                      E
Bukas ng alas siyete sa dating tagpuan

A            C#m 
Buo ang araw ko

Bm                      E
Marinig ko lang ang mga himig mo


REFRAIN:
Bm                     C#m
Hindi ko man alam kung nasan ka

Bm                  C#m
Wala man tayong komunikasyon

Bm                  C#m
Mag hihintay sa’yo buong magdamag

D                    Dm(pause)     A(pause)
Dahil ikaw ang buhay ko

CHORUS:
A             C#m 
Kung inaakala mo

Bm                E
Ang pag-ibig ko’y magbabago

A           C#m
Itaga mo sa bato

Bm             E
Dumaan man ang maraming pasko

Bm                C#m
Kahit na di mo na abot ang sahig

Bm                C#m
Kahit na di mo na ‘ko marinig

D        E(pause)
Ikaw pa rin ang buhay ko

A-C#m-Bm-E
OR
e|--12-10-9-------------9-9-12-10-9---------------------|
B|----------10-12-------------------10-12-12s14-12-10---|
G|------------------------------------------------------|
D|------------------------------------------------------|
A|------------------------------------------------------|
E|------------------------------------------------------|
                        Uhh... Ohh...


VERSE2: 
A       C#m
Naalala ko pa

Bm                   E
Nung pinapangarap pa lamang kita

A             C#m
Hahatid, susunduin

Bm               E                E
Kahit mga bituin aking susungkitin


CHORUS:
A             C#m 
Kung inaakala mo

Bm                E
Ang pag-ibig ko’y magbabago

A           C#m
Itaga mo sa bato

Bm             E
Dumaan man ang maraming pasko

Bm                C#m
Kahit na di mo na abot ang sahig

Bm                C#m
Kahit na di mo na ‘ko marinig

D            E(pause)
Ikaw pa rin...


BRIDGE: 
D         E      F#m
Araw-araw kitang liligawan

       E       D
Haharanahin ka lagi

E      F#m
Kitang liligawan

       E       (pause)
Haharanahin ka lagi


CHORUS:
B(pause)      D#m(pause)
Kung inaakala mo

C#m(pause)        F#(pause)
Ang pag-ibig ko’y magbabago

B(pause)    D#m(pause)
Itaga mo sa bato

C#m(pause)     F#(pause)
Pumuti man ang mga buhok ko ohhhh...
 
B             D#m 
Kung inaakala mo

C#m                F#
Ang pag-ibig ko’y magbabago

B             D#m 
Kung inaakala mo

C#m                F#
Ang pag-ibig ko’y magbabago

C#m               D#m
Kahit na kumulubot ang balat

C#m               D#m
Kahit na hirap ka nang dumilat

C#m               D#m
Kahit na di mo na abot ang sahig

C#m               D#m
Kahit na di mo na ako marinig 

C#m        D#m        F#
Ikaw parin(ikaw pa rin)
(pause)
Ang buhay ko.


CHORDS USED:
https://fbcdn-sphotos-g-a.akamaihd.net/hphotos-ak-ash3/529377_628648633827617_1091133836_n.jpg



Listen to the song to get the strumming pattern.
PM me if there is some mistakes.
or CHAT me on Facebook.
romel_mallari_1216@yahoo.com
ENJOY!~ :D

~~~~~~~~~~~~~~~~~~~~~~~~~~~~♥FOüRtinEVER♥~~~~~~~~~~~~~~~~~~~~~~~~~~~~
Tap to rate this tab
 
# A B C D E F G H I J K L M N O P Q R S T U V W X Y Z