Song name
# A B C D E F G H I J K L M N O P Q R S T U V W X Y Z

Jireh Lim - Magkabilang Mundo tab

Magkabilang Mundo
By: Jireh Lim

Hi guys. Ito po ang unang subok at gawa ko. Alam ko di ito 100% tama. Willing po 
ako sa mga comments at suggestions. Sana magustuhan n'yo po 'to. Salamat...

----

  Magkalayong agwat...  pag-ibig na alay sa ‘yo

E ------5----|------4----|--------5----|------5----|
B ----5---5--|--------5--|------7---7--|--------6--|
G --6--------|----6------|----7--------|----7------|
D -----------|--6--------|-------------|--7--------|
A -----------|-----------|-------------|-----------|
E -----------|-----------|-------------|-----------|

  Ang awit na ‘to...    magkabila man an gating mundo

E ------5----|------4----|--------5----|------5----|--5--|
B ----5---5--|--------5--|------7---7--|--------6--|--6--|
G --6--------|----6------|----7--------|----7------|--7--|
D -----------|--6--------|-------------|--7--------|--7--|
A -----------|-----------|-------------|-----------|-----|
E -----------|-----------|-------------|-----------|-----|


          A                C#m
Kahit nasan ka man hindi ka papalitan
     D                     Dm
Nag-iisa ka lang kahit na langit ka at lupa ako
A                     C#m
Ang bituin ay aking dadamhin
     D                      Dm
Pag naiisip ka sabay kayong nagniningning


Chorus:
       A                E
Dito ay umaga at diyan gabi
        F#m           D
Ang oras natin ay magkasalungat
      A               E
Aking hapunan ay iyong umagahan
      F#m       D
Ngunit kahit na anong mangyari
Bm          D                A
Balang araw ay makakapiling ka

        A             C#m
Hihintayin kita kahit nasan ka pa
          D                 Dm
Di ako mawawala kahit na may dumating pa
     A               C#m
Dito lang ako iibig sa iyo
          D                      Dm
Hangga't nandiyan ka pa hangga't wala ka pang iba


Repeat Chorus
Adlib
Repeat Chorus except last line
Repeat Chorus
Tap to rate this tab
# A B C D E F G H I J K L M N O P Q R S T U V W X Y Z