Song name
# A B C D E F G H I J K L M N O P Q R S T U V W X Y Z

Jireh Lim - Magkabilang Mundo tab

e----------------------------------------------------------------|
B---9-8---------------------------9-8----------/11--13-11-9-9----|
G-------10-8----8-8--10-8----8--------10-8-----------------------|
D------------10-----------10---------------10--------------------|
A----------------------------------------------------------------|
E----------------------------------------------------------------|

e------11----------------------------11--------------------------|
B--8-9----9/11-9-8-9-8------9---8-9-----9/11-9-8-9-8-9-8-9-------|
G----------------------10-8--------------------------------------|
D----------------------------------------------------------------|
A----------------------------------------------------------------|
E----------------------------------------------------------------|

e----------------------------------------------------------------------|
B-9/11-----------------------------------------------------------------|
G----------------------------------------------------------------------|
D----------------------------------------------------------------------|
A----------------------------------------------------------------------|
E----------------------------------------------------------------------| 
Tap to rate this tab
# A B C D E F G H I J K L M N O P Q R S T U V W X Y Z