Guitaretab - guitar tabs
Song name
# A B C D E F G H I J K L M N O P Q R S T U V W X Y Z

Jj Cale - Out Of Style tab

Another nice J.J. song from REWIND (2007) album


G F G F 

Am E, Am E, Am G F E E7 Am

Am		   E
I sure do miss you babe
Am	             E
You know it's been a while
Am      G    F		    E
Way too long since you been gone
E7                Am
I'm almost out of style

You treat me kind and gentle
You're always on my mind
A love that's true I keep for you
Until the end of time

G F G F 

Am E, Am E, Am G F E E7 Am

Someday you've got to come back
Stay with me a while
I'll take some time to make you mine
And keep you out of style


SOLO:
[ Tab from: http://www.guitaretab.com/j/jj-cale/100392.html ]
|-------------------------------------------------------------------------------|
|------------------5-6----5-53h5p3---------------------------------------------|
|-----------4-5-7--------------------5-4-5----4-5-7--4-5-7--4-------------------|
|---7-6-7-----------------------------------------------------------------------|
|-------------------------------------------------------------------------------|
|-------------------------------------------------------------------------------|
								
|-------------------------------------------------------------------------------|
|-------------5-6---5h6p5h6--5-----5-6------------------------------------------|
|------4-5-7--------------------7-----------------------------------------------|
|---7---------------------------------------------------------------------------|
|-------------------------------------------------------------------------------|
|-------------------------------------------------------------------------------|

|--------5--7----8-7-5---8-5--7------5--------5---------------------------------|
|---5-5--------------------------8------8-6------8-6-5--------------------------|
|-------------------------------------------------------------------------------|
|-------------------------------------------------------------------------------|
|-------------------------------------------------------------------------------|
|-------------------------------------------------------------------------------|

|-------------------------------------------------------------------------------|
|---5h6p53h5p31h3p1-0h1p0----------------------------------------------------|
|------------------------------2p0h2p0h2p0~~~-----------------------------------|
|-------------------------------------------------------------------------------|
|-------------------------------------------------------------------------------|
|-------------------------------------------------------------------------------|

Related for Out Of Style tab