Guitaretab - guitar tabs
Song name
# A B C D E F G H I J K L M N O P Q R S T U V W X Y Z

Jj Cale - Magnolia Live tab

01:43 - 01:48
|-8-7-5------------------------------------|
|-------8-5---5----5-----------------------|
|-----------7----7---7-5-4------5p4--------|
|--------------------------5h7-------------|
|------------------------------------------|
|------------------------------------------|

01:48  01:53 								
|------------------------------------------|
|-5-8b10~~~---8p5--------------------------|
|-----------------7p57b(8)p5---5p7/9------|
|------------------------------------------|
|------------------------------------------|
|------------------------------------------|
[ Tab from: http://www.guitaretab.com/j/jj-cale/115799.html ]
01:53  01:59
|------5----7b(8)-------5-8p7p5----5-------|
|-5-8----5----------(8)----------8---5-----|
|------------------------------------------|
|------------------------------------------|
|------------------------------------------|
|------------------------------------------|
  
01:59  02:04
|--------5-5-------5---5-------------------|
|-5h8-8------8-5-----8---8-5---------------|
|------------------------------------------|
|------------------------------------------|
|------------------------------------------|
|------------------------------------------|

02:04  02:09
|-----------5------------------------------|
|---------5---8-5-88/10-8-----------------|
|-7b(8)5-------------------9---------------|
|------------------------------------------|
|------------------------------------------|
|------------------------------------------|

2004 - Live At The Gothic Theatre, July 7
Related for Magnolia Live tab