Song name
# A B C D E F G H I J K L M N O P Q R S T U V W X Y Z

Jj Cale - Call The Docter tab

Help us improve GuitareTab! Take a short survey!
-------------------------------------------------------------------------------
			     Call the docter - JJ Cale
-------------------------------------------------------------------------------
Tabbed by:Konrad Joseph Stephan Kosieniak-Madejski
Email:

Tuning:EADGBe

this is just a basic riff to base the whole song on

its basically 3 chords, Aminor Bminor and C
e|-------0--------2-------(3)-------2--------------------------------------|
B|-------1--------3--------5--------3--------------------------------------|
G|-------2--------4--------5--------4--------------------------------------|
D|-----2---2----4---4----5---5----4---4------------------------------------|
A|---0--------2--------3--------2------------------------------------------|
E|-------------------------------------------------------------------------|
Related for Call The Docter tab