Song name
# A B C D E F G H I J K L M N O P Q R S T U V W X Y Z

Jj Grey And Mofro - The Sun Is Shining Down tab

Haven't seen this anywhere online so I figured it out by ear. I'm almost 100% sure it's accurate.
The Sun is Shining Down (solo)- JJ Grey & Mofro
Country Ghetto (2007) C# Major
e|-------------------------------------|
B|-------------------------------------|
G|--------------6-b8-b8-6-------6-6--6-|
D|------6-8-6-8----------8--6-8--------|
A|---s8--------------------------------|
E|-------------------------------------|

e|-------6-----6-b9-9--6----6----------|
B|-----6--6-b9-----------b9---9-6------|
G|--b8---------------------------8-8-6-|
D|-------------------------------------|
A|-------------------------------------|
E|-------------------------------------|

e|---------------------------------9-----|
B|----------------------------9------9---|
G|--6-6-6h8-8-6-8-8-8-8-8s10----10----10-|
D|---------------------------------------|
A|---------------------------------------|
E|---------------------------------------|

e|-------------9---------11-11-11-11-11-|
B|---------9-----9----------------------|
G|-10--10----10----10--10---------------|
D|--------------------------------------|
A|--------------------------------------|
E|--------------------------------------|

e|--9-9-9-11-11-11-11b--11b--11b-11--9-|
B|-------------------------------------|
G|-------------------------------------|
D|-------------------------------------|
A|-------------------------------------|
E|-------------------------------------|

e|------------------9-------------------|
B|--11--9-11-9--------11----------------|
G|--------------10-------10--b8-8-6-----|
D|----------------------------------8-8-|
A|--------------------------------------|
E|--------------------------------------|

e|--------------------------|
B|--------------------------|
G|----6---------------------|
D|--8---8-6--8-6------------|
A|---------------8-6-4----4-|
E|---------------------6-6--|
Tap to rate this tab
# A B C D E F G H I J K L M N O P Q R S T U V W X Y Z