Song name
# A B C D E F G H I J K L M N O P Q R S T U V W X Y Z

Jj Heller - Love Me tab

Help us improve GuitareTab! Take a short survey!
These are the Chords used, pretty sure there correct.
you can figure out the picking pattern, its not hard, i promise ;) haha

Capo 6th

its in 4/4 time so just imagine each chord as a beat.

Intro
    1& 2& 3 &  4& 1& 2& 3& 4      and so on...
e|----------------------0--0-|
B|--1--1--1----1--1--1--1--1-|
G|--0--0--0----0--0--0--0--0-|
D|--2--0--0h2--3--2--0--3--3-|
A|---------------------------|
E|---------------------------|


Verses
e|--------------------------------------------0--0--0--0--|
B|--1--1--1--1--1--1--1--1--1--1--1--1--1--1--1--1--1--1--|
G|--0--0--0--0--0--0--0--0--0--0--0--0--0--0--0--0--0--0--|
D|--2--2--3--3--2--2--0--0--2--2--3--3--2--2--0--0--2--2--|
A|--------------------------------------------------------|
E|--------------------------------------------------------|


Chorus
e|--0--0--0--0--|
B|--1--3--1--1--|   x 2  
G|--0--0--0--2--|
D|--2--0--2--3--|
A|--3--2--0--3--|
E|--0--3--x--0--|
Related for Love Me tab