Song name
# A B C D E F G H I J K L M N O P Q R S T U V W X Y Z

Jj - Let Go tab

e|------------------------------------------------------------------------------|
B|-11-11-11--10-8---10-11---13-13-13--11-10---10-11-----------------------------|
G|---------------------------------------------------10--12-9--10-7--9-5--2-3-5-|
D|------------------------------------------------------------------------------|
A|------------------------------------------------------------------------------|
E|------------------------------------------------------------------------------|

e|-------------------------------------------------------------------------------------|
B|-11-11-11--10-8---10-11---13-13-13--11-10---10-11------------------------------------|
G|---------------------------------------------------10--12-9--10-7--9-5--2-3-5--3-2-3-|
D|-------------------------------------------------------------------------------------|
A|-------------------------------------------------------------------------------------|
E|-------------------------------------------------------------------------------------|
Tap to rate this tab
# A B C D E F G H I J K L M N O P Q R S T U V W X Y Z