Guitaretab - guitar tabs
Song name
# A B C D E F G H I J K L M N O P Q R S T U V W X Y Z

Jj72 - Half Three tab

Tabbed by gerry

I am the fan. Best band ever! I am in the middle of
tabbing the whole 'i to sky'album. e-mail me with 
any jjinfo at all, and try correct this tab where
you can. Add me to the messenger thing if you want
************i_am_jj72@hotmail.com****************
HALF THREE

The guitar isn't the most dominant instrument in
this song, but listen to it.

Intro - play with a lot of distortion
e--------------------------------------------------
B--8-8-8/6-6-6-6/4-4-4-4/3-3-3-3/1-1-1-1-1---------
G------------------------------------------3-3-3-3-
D--------------------------------------------------
A--------------------------------------------------
E--------------------------------------------------

6-h8-8-8-8

VERSE 1
There is no guitar in the first chorus. At the end 
of the chorus play the intro again.

VERSE 2
Play this softly through the 2nd verse. Listen to
song to get the strokes right.
e---6---6---4---       But after playing these chords
B---8---6---4---       the 3rd and 4th time, play this
G---8---7---5--- *4    wee bit on then B-String
D---8---8---6---       B--9-9-9-8-8-8-6-
A-- 6---8---6---
E---6---6---4---

After 2nd chorus play this

e--------------------------------------------------
B--6-h8-8-8-8--6-h8-8-8-8--6-h8-8-8-8--9-8-6------
G--------------------------------------------------
D--------------------------------------------------
A--------------------------------------------------
E--------------------------------------------------
[ Tab from: http://www.guitaretab.com/j/jj72/32471.html ]
Chorus:
e---------------------------------------------------------
B--------------------------------------------9-9-9-8-8-8-6
G-8-8-8-8-8-8-8-------------------------------------------
D-8-8-8-8-8-8-8-8-8-8-8-8-8-8-8-8-8-8-8-8-8---------------
A-6-6-6-6-6-6-6-8-8-8-8-8-8-8-6-6-6-6-6-6-6---------------
E---------------6-6-6-6-6-6-6-4-4-4-4-4-4-4---------------

Play this bit again twice:
e--------------------------------------------------
B--6-h8-8-8-8--6-h8-8-8-8--6-h8-8-8-8--9-8-6------
G--------------------------------------------------
D--------------------------------------------------
A--------------------------------------------------
E--------------------------------------------------

e---6---6---4---6-----       
B---8---6---4---8-----       
G---8---7---5---8-----  *4    
D---8---8---6---8-----       
A-- 6---8---6---6-----
E---6---6---4---6-----

REFRAIN( very weird part of the song) 
Strike these chords a few times:
e--------------------------------------------------
B--------------------------------------------------
G--------------------------------------------------
D---5-5-5-5-5-5-5--6-6-6-6-6-6-6-------------------
A---5-5-5-5-5-5-5--6-6-6-6-6-6-6-------------------
E---3-3-3-3-3-3-3--4-4-4-4-4-4-4-------------------

e---6---6---4---6-----       
B---8---6---4---8-----       
G---8---7---5---8-----  *4    
D---8---8---6---8-----       
A-- 6---8---6---6-----
E---6---6---4---6-----

TO END THE SONG, JUST PLAY THE INTRO A FEW TIMES.
********************************************************
(
  ;)
(
Related for Half Three tab