Song name
# A B C D E F G H I J K L M N O P Q R S T U V W X Y Z

Jkt48 - Himawari chords

Highlighted       Show chord diagrams
HIMAWARI
JKT48
 
Intro :
C7..C7..C7..C7..
       
|-8-------------------8---------------|
|-8---11-10--8--10-11-8--11-10--11-8--|
|-9---9--9---9--9--9--9--9--9---9--9--| 3x
|-10--10-10--10-10-10-10-10-10--10-10-|
|-------------------------------------|
|-------------------------------------|
 
|-8----------------------|
|-8---11-10--8--10-11----|
|-9---9--9---9--9--9-----|
|-10--10-10--10-10-10----|
|------------------------|
|------------------------|
 
Reff :
F              C/E
Bunga matahari tertiup angin
Bb        A7           Dm        F
Menghadap matahari bertumbuh dan mekar
  Bb     C         F     Dm
Ke langit biru yang tiada berbatas
Bb                   C
Kedua tanganku di rentangkan nya
F                 C/E
Meskipun di terpa derasnya hujan,
  Bb   A7          Dm      F
Tanpa menyeka air mata yang jatuh
Bb       C          F         Dm
Yuk kita awali balikkan kesedihan,
   Bb          Bbm      F
Kepada cerahnya masa depan
 
 
Ab           Eb
Naiki motor tua
Bb                  Cm
Menara sebagai petunjuk
Ab             Eb
Dekati musim panas
       Bb
Ku ajak dirimu
Ab                    Eb
Di tengah tanjakan landai
  Bb                  Cm
Di sana kan mulai terlihat
  Ab               Eb
Kembang api warna kuning
          Bb
Terbentang sangat luas
   Ab            G      Cm - Eb
Aku tak akan bertanya apapun
    Ab
Jika kamu hidup
          Bb
Banyak hal yang terjadi
        Ab           G         Cm - Eb
Hal yang tak kau suka dan kesulitan
Db
Pada saat itu,
       Cm
Ku dari bukit ini
   Db             Bb - - C
Memegang pada seseorang
 
 
Reff :
F              C/E
Bunga matahari dalam dirimu
Bb   A7               Dm      F
Saat ini berkembang entah dimana
 Bb     C            F        Dm
Jika kau punya impian yang kau tuju
    Bb                C
Haruslah itu kau ingat kembali
 
F                   C/E
Terkadang  meskipun terhelai awan,
   Bb     A7         Dm       F
Tak pernah ada kata untuk menyerah
 Bb       C          F        Dm
Sinar mentari yang engkau dambakan
  Bb         Bbm     F
Suatu saat sampai padamu
 
 
Ab             Eb
Duduk bersebelahan
  Bb                    Cm
Di atas pagar pembatas jalan
Ab              Eb
Lalu mentari senja,
       Bb
Membuat bayangan
Ab                 Eb
Kabel listrik bergoyang
  Bb              Cm
Walau menari diam diam
 Ab               Eb
Harapan berwarna kuning
      Bb
Akan tetap berdiri
 
 
 
 
 
   Ab          G       Cm - Eb
Aku tak bisa berbuat apapun
       Ab                Bb
Hanya menunjukkan ke pemandangan ini
 
    Ab             G     Cm - Eb
Dari kesedihan atau kesepian
        Db                 Cm
Saat kau jatuh pun kau sendirilah,
    Db                    Bb - - C  
Mendengar.. Dan melihat langit
 
Reff :
F                C/E
Agar kau menjadi diri sendiri,
Bb       A7            Dm       F
Aku menunggu sampai kau bisa bangkit
  Bb    C            F        Dm
Di baris langit permintaan itu pun
     Bb              C
Pasti matahari sedang menunggu
F                C/E
Di dalam dada ku itu pastilah
Bb       A7       Dm       F
Ada bunga matahari sedang mekar
 Bb       C         F          Dm
Tutuplah mata dan ingatlah kembali
     Bb           Bbm        F
Benih yang dulu pernah kau tanam
 
 
Interlude :
Bb C Dm Am
Bb Bbm
C7..C7..C7..C7..
 
 
Lead guitar :
 
|-----8-----8--8-|-8-6-5---------|-8-6-5-6--5-----|------------|
|-5-6---5-6------|-------8—6-5-6-|------------8-6-|-5-6--------|
|----------------|---------------|----------------|-----5------|
|----------------|---------------|----------------|----------7-|
|----------------|---------------|----------------|------------|
|----------------|---------------|----------------|------------|
 
 
|--------------|----13--------|
|------6-11-13-|-14-----13-14-|
|----7---------|--------------|
|-8------------|--------------|
|--------------|--------------|
|--------------|--------------|
 
 
 
 
|-8-------------------8---------------|
|-8---11-10--8--10-11-8--11-10--11-8--|
|-9---9--9---9--9--9--9--9--9---9--9--| 3x
|-10--10-10--10-10-10-10-10-10--10-10-|
|-------------------------------------|
|-------------------------------------|
 
 
|-8-------------------8----------------|
|-8---11-10--8--10-11-8--11-10-8-------|
|-9---9--9---9--9--9--9--9--9--9--10-9-|
|-10--10-10--10-10-10-10-10-10-10-10-10|
|--------------------------------------|
|--------------------------------------|
 
 
 
Reff :
F              C/E
Bunga matahari tertiup angin
Bb        A7           Dm        F
Menghadap matahari bertumbuh dan mekar
  Bb     C         F     Dm
Ke langit biru yang tiada berbatas
Bb                   C
Kedua tanganku di rentangkan nya
F                 C/E
Meskipun di terpa derasnya hujan,
  Bb   A7          Dm      F
Tanpa menyeka air mata yang jatuh
Bb       C          F         Dm
Yuk kita awali balikkan kesedihan,
   Bb          Bbm      F
Kepada cerahnya masa depan
 
Tap to rate this tab
# A B C D E F G H I J K L M N O P Q R S T U V W X Y Z