Song name
# A B C D E F G H I J K L M N O P Q R S T U V W X Y Z

Jls - Heal This Heartbreak tab

Tabbed by SkiaMaree

Okay so this isn't my usual sort of song I listen to ... but i do love the little bit of 
guitar that's in this ...! I think it's about 90% right so any suggestions welcome!!


for anyone who doesn't know

 /   is slide up to



pretty damn easy...


Standard Tuning

Intro:

e|--------------------------------|
B|--------------------------------|
G|--------------------------------|
D|------6-8-10-----8-10---/10-----| X2
A|---/8----------8------8----8----|
E|--------------------------------|

Verse:

e|--------------------------------|
B|--------------------------------|
G|--------------------------------|
D|------6-8-10-----8-10---/10-----| X2
A|---/8----------8------8----8----|
E|--------------------------------|
                                                               all of this X2

e|-------------------------------------------------|
B|-------------------------------------------------|
G|-------------------------------------------------|
D|-------------------------------------------------| X2
A|-----8-10-11-----8-11-----11---11----------------|
E|---9----------9---------9----9----9-8-8-8-9-9-9--|


and then for the chorus it stops with the whole guitar thing but i tabbed the 
synthesizer (I think that's what it's called in pop music?!)

Chorus:


e|------------------|
B|------------------|
G|------------------|
D|---------10-10----| X4
A|---8-8-8----------|
E|------------------|
                                     all of this X2
e|------------------|
B|------------------|
G|------------------|
D|------------------| X4
A|---------11-11----|
E|---9-9-9----------|


Then the verse again, chorus again

Then the guitar for the bridge is the same as the verse. then the chorus again and 
you're through!
Tap to rate this tab
 
# A B C D E F G H I J K L M N O P Q R S T U V W X Y Z