Song name
# A B C D E F G H I J K L M N O P Q R S T U V W X Y Z

Jmsn - Girl I Used To Know tab

e|------------------17----------------17--------------12-----------------------------|
B|--------------19----------------19---------------14--------------------------------|
G|----------18----------------18----------------13-----------------------------------|
D|------16----------------16-----------------11--------------------------------------|
A|-----------------------------------------------------------------------------------|
E|-----------------------------------------------------------------------------------|

e|--------12---------10-------10------10-----10-------------------------------------|
B|------14---------12-------12------12-----12---------------------------------------|
G|----13---------11-------11------13-----13-----------------------------------------|
D|--11---------9--------9-------11-----11-------------------------------------------|
A|----------------------------------------------------------------------------------|
E|----------------------------------------------------------------------------------|

The other guitar part goes like this

e|----------9--9---7----7---------------------------------------------------------|
B|-------------------10------9-9-10-7---------------------------------------------|
G|--------------------------------------------------------------------------------|
D|--------------------------------------------------------------------------------|
A|--------------------------------------------------------------------------------|
E|--------------------------------------------------------------------------------|

e|---------9---7----7---------------------------------------------------------------|
B|---------------10-----9-9-10-7----------------------------------------------------|
G|----------------------------------------------------------------------------------|
D|----------------------------------------------------------------------------------|
A|----------------------------------------------------------------------------------|
E|----------------------------------------------------------------------------------|
Tap to rate this tab
# A B C D E F G H I J K L M N O P Q R S T U V W X Y Z