Jo Dee Messina - Bye Bye tab

-------------------------------------------------------------------------------
			     Bye, Bye - Jo Dee Messina
-------------------------------------------------------------------------------

Tuning: Standard

Main Riff:

e|-----------------------------------------------------------------------------|
B|--11--10---------------------------------------------------------------------|
G|--10--10--12-12--------------------------------------------------------------|
D|----------13-13--12b13r12-10--8--10--12--------------------------------------|
A|-----------------------------------------8--10--12---10--10------------------|
E|-----------------------------------------------------11--11---10b11r10--8--6-|
Tap to rate this tab
 
# A B C D E F G H I J K L M N O P Q R S T U V W X Y Z