Song name
# A B C D E F G H I J K L M N O P Q R S T U V W X Y Z

Joan Armatrading - Love And Affection tab

------------------------------------------------------------------------
		    LOVE AND AFFECTION  Joan Armatrading
------------------------------------------------------------------------
Tabbed by: John McNally
Email:jm12u@hotmail.com

Tuning: standard

     C#m                      F#add11       Aadd9    Badd11   E
e|----------4----------------------0---------0----------0-----7----------|
B|--------5-----------------------0---------0----------0-----9-----------|
G|------6------------------------3--------6-----------8-----9------------|
D|-----6------------------------4--------7-----------9-----9-------------|
A|---4------------------------4---------7-----------9-----7--------------|
E|--------------------------2---------5------------7-----0---------------|
          I am not in love -           But I'm   open to persuasion

        Aadd9                Aadd9\G#          F#add11      C#m\E
e|--------0--------------------0-------------------0------------0--------|
B|-------0--------------------0-------------------0------------0---------|
G|-----6--------------------6-------------------3-------------6----------|
D|----7--------------------7-------------------4-------------6-----------|
A|---7--------------------7-------------------4-------------4------------|
E|-5---------------------4-------------------2-------------0-------------|
           East or West - Where's the best        For romancing

       Aadd9                     Aadd9\G#
e|--------0----------------------0-----------------------------------------|
B|------0----------------------0-------------------------------------------|
G|----6----------------------6---------------------------------------------|
D|---7----------------------7----------------------------------------------|
A|--7----------------------7-----------------------------------------------|
E|-5----------------------4------------------------------------------------|
            With a friend   -   I can smile

       F#add11                           Aadd9
e|--------0--------------------------------0------------------------------|
B|------0--------------------------------0--------------------------------|
G|----3---------------------------------6---------------------------------|
D|---4---------------------------------7----------------------------------|
A|--4---------------------------------7-----------------------------------|
E|-2---------------------------------5------------------------------------|
    But with a lover I could hold my head-back  I could really laugh

               E          Badd9                Aadd9
e|------------7-------------0-------------------0--------------------------|
B|----------9-------------0-------------------0----------------------------|
G|---------9------------8-------------------6------------------------------|
D|--------9------------9-------------------7-------------------------------|
A|-------7------------9-------------------7--------------------------------|
E|------0------------7-------------------5---------------------------------|
   Really laugh

              C#m        F#add11                  C#m\E
e|---------------4---------0------------------------4---------------------|
B|-------------5---------0------------------------5-----------------------|
G|------------6--------3------------------------6-------------------------|
D|-----------6--------4------------------------6--------------------------|
A|----------4--------4------------------------4---------------------------|-
E|------------------2-----------------------0-----------------------------|
 Thank you                      You took me dancing

          Aadd9                   Aadd9\G#
e|---------0------------------------0-------------------------------------|
B|-------0------------------------0---------------------------------------|
G|-----6------------------------6-----------------------------------------|
D|----7------------------------7------------------------------------------|
A|---7------------------------7-------------------------------------------|
E|--5------------------------4--------------------------------------------|
             Cross the floor - Cheek to cheek

         F#add11                                  Aadd9
e|---------0----------------------------------------0---------------------|
B|-------0----------------------------------------0-----------------------|
G|-----3-----------------------------------------6------------------------|
D|----4-----------------------------------------7-------------------------|
A|---4-----------------------------------------7--------------------------|
E|--2-----------------------------------------5---------------------------|
         But with a lover - I could really move

                                       E
e|---------------------------------------7---------------------------------|
B|-------------------------------------9-----------------------------------|
G|------------------------------------9------------------------------------|
D|-----------------------------------9-------------------------------------|
A|----------------------------------7--------------------------------------|
E|---------------------------------0---------------------------------------|
Really move - I could really dance

                       Badd9   Aadd9
e|----------------------0--------0----------------------------------------|
B|--------------------0--------0------------------------------------------|
G|-------------------8-------6--------------------------------------------|
D|------------------9-------7---------------------------------------------|
A|-----------------9-------7----------------------------------------------|
E|----------------7-------5-----------------------------------------------|
Really dance -Really dance - Really dance

             Badd9         E
e|-----------0-------------7----------------------------------------------|
B|---------0-------------9------------------------------------------------|
G|-------8-------------9--------------------------------------------------|
D|------9-------------9---------------------------------------------------|
A|-----9-------------7----------------------------------------------------|
E|----7-------------0-----------------------------------------------------|
    I could really move

                       Badd9        Aadd9
e|------------------------0-----------0------------------------------------|
B|----------------------0-----------0--------------------------------------|
G|--------------------8------------6---------------------------------------|
D|-------------------9------------7----------------------------------------|
A|------------------9------------7-----------------------------------------|
E|-----------------7------------5------------------------------------------|
Really move - Really move -Really move

                Badd9   E            Badd9              Aadd9
e|----------------0-----7-----------0-------------------0----------------|
B|---------------0-----9-----------0-------------------0-----------------|
G|--------------8-----9-----------8-------------------6------------------|
D|-------------9-----9-----------9-------------------7-------------------|
A|------------9-----7-----------9-------------------7--------------------|
E|-----------7-----0-----------7-------------------5---------------------|
      Now if I can feel - the sun         In my eyes -

                         Aadd9\G#   F#add11                 C#m    Bbmaj7
e|----------------------------0-------0-----------------------4-----6-----|
B|--------------------------0-------0-----------------------5-----6-------|
G|------------------------6--------3-----------------------6-----7--------|
D|-----------------------7--------4-----------------------6-----7---------|
A|----------------------7--------4-----------------------4-----8----------|
E|---------------------4--------2-----------------------0-----6-----------|
    And the rain on my face         Why can't I    Feel ------------------|

           E                 Badd9                Aadd9
e|---------7--------------------0-----------------0---------------------|
B|-------9--------------------0-----------------0-----------------------|
G|-----9--------------------8------------------6------------------------|
D|----9--------------------9------------------7-------------------------|
A|---7--------------------9------------------7--------------------------|
E|--0--------------------7------------------5---------------------------|
     Love          Repeat Chords  x  7


I can really love
Really love -Really love
Really love - Really love
Love love love love
Love love love love
Now I got all
The friends that I want (O give me love)
I may need more
But I shall just stick to those (O give ---) That I have got

           Aadd9                        Badd9
e|----------0-----------------------------0------------------------------|
B|--------0-----------------------------0--------------------------------|
G|------6------------------------------8---------------------------------|
D|-----7------------------------------9----------------------------------|
A|----7------------------------------9-----------------------------------|
E|---5------------------------------7------------------------------------|
    With friends I still feel So insecure

           Aadd9                       Badd9
e|----------0-----------------------------0---------------------------------|
B|--------0-----------------------------0-----------------------------------|
G|------6------------------------------8------------------------------------|
D|-----7------------------------------9-------------------------------------|
A|----7------------------------------9--------------------------------------|
E|---5------------------------------7---------------------------------------|
      Little darling I believe you could Help me a lot

           Aadd9                        Badd9
e|----------0-----------------------------0---------------------------------|
B|--------0-----------------------------0-----------------------------------|
G|------6------------------------------8------------------------------------|
D|-----7------------------------------9-------------------------------------|
A|----7------------------------------9--------------------------------------|
E|---5------------------------------7---------------------------------------|
    Just take my hand And lead me where you will

           Aadd9                        Badd9
e|----------0-----------------------------0---------------------------------|
B|--------0-----------------------------0-----------------------------------|
G|------6------------------------------8------------------------------------|
D|-----7------------------------------9-------------------------------------|
A|----7------------------------------9--------------------------------------|
E|---5------------------------------7---------------------------------------|
     No conversation No wave goodnight

          E       Badd9    Aadd9
e|---------7--------0--------0-------------------------------------------|
B|-------9--------0--------0---------------------------------------------|
G|-----9---------8-------6---------X 4-----------------------------------|
D|----9---------9-------7------------------------------------------------|
A|---7---------9-------7-------------------------------------------------|
E|--0---------7-------5--------------------------------------------------|
     Just make love - With affection
Sing me another love song
But this time - With a little dedication
Sing it, Sing it (sing it, sing it)
You know that's what I like (O give me love)
Once more with feeling

               G6              F#add11   Fmaj7     E
e|-------------0-----------------0---------0------------0--------------|
B|-----------0------------------0---------0------------0---------------|
G|---------4-------------------3---------2------------1----------------|
D|--------5-------------------4---------3------------2-----------------|
A|-------5-------------------4---------3------------2------------------|
E|------3-------------------2---------1------------0-------------------|
Give me love - Give me love - Give me love  - Love...

Sax Break

          E        Badd9    Aadd9
e|---------7--------0--------0-------------------------------------------|
B|-------9--------0--------0---------------------------------------------|
G|-----9---------8-------6---------X 12----------------------------------|
D|----9---------9-------7------------------------------------------------|
A|---7---------9-------7-------------------------------------------------|
E|--0---------7-------5--------------------------------------------------|
(O give me love)
Make love - With affection
Sing me another love song
But this time - With a little dedication
Sing it, Sing it (sing it, sing it)
You know that's what I like (O give me love Uh - oh)
Once more with feeling

Sing me another love song
But this time - With a little dedication
Sing it, Sing it (sing it, sing it)
You know that's what I like (O give me love - Uh - oh)
With affection Uh - oh
With a little dedication (O give me love Uh - oh)
Once more with feeling Uh - oh
You know that's what I like (O give me love Uh - oh)
Uh - oh

************************************

| /   slide up
| \   slide down
| h   hammer-on
| p   pull-off
| ~   vibrato
| +   harmonic
| x   Mute note
| b   Bend
| pb  Pre-bend
| br  Bend release
| pbr Pre-bend release
| brb Bend release bend

************************************
Tap to rate this tab
# A B C D E F G H I J K L M N O P Q R S T U V W X Y Z