Song name
# A B C D E F G H I J K L M N O P Q R S T U V W X Y Z

Joan Jett And The Blackhearts - I Love Rock N Roll tab

I think its pretty accurate. Enjoy

1----------------------------------------------------------------|
2--------------------------------12------------------------(12)--|
3----------------7---------9-11b----11r-9----9-11--------9-------|
4----------------6-----/11----------------11------9-9h11---------|
5----------------------------------------------------------------|
6-0-X-X-2b-2b-0--------------------------------------------------|

1----------------------------------------------------------------|
2----------------------------------------------------------------|
3-9-9-9/8-8-8/6-6-6/4-4-4/2-2-2/1--1----------2------------------|
4------------------------------------4-2------2------------------|
5----------------------------------------4-2--0------------------|
6----------------------------------------------------------------|
Tap to rate this tab
# A B C D E F G H I J K L M N O P Q R S T U V W X Y Z