Song name
# A B C D E F G H I J K L M N O P Q R S T U V W X Y Z

Joan Jett And The Blackhearts - Crimson And Clover tab

----------------------------------------------------------------------------
              Crimson and Clover - Joan Jett & The Blackhearts
----------------------------------------------------------------------------
Tabbed by: Jettfan12
Email: Jettfan12@gmail.com

Just follow it straight through with repeats, thats it. This is tabbed exactly,from the 
Fit to be Tied.
Email me if you have any questions.

It's my first tab, please comment and rate :) Thanks.

Tuning: Standard (e,B,G,D,A,E)

e|--------------------|
B|--------------------|
G|--5--5--------------| X3
D|--5--5--5--5--3--3--|
A|--3--3--5--5--3--3--|
E|--------3--3--1--1--|

e|-----------------------|
B|-----------------------|
G|--5--5-----------------| X1
D|--5--5--5--5--3--3//5--|
A|--3--3--5--5--3--3//5--|
E|--------3--3--1--1//3--|

e|--------------------|
B|--------------------|
G|--5--5--------------| X4
D|--5--5--5--5--3--3--|
A|--3--3--5--5--3--3--|
E|--------3--3--1--1--|

e|----------------------------------------------------------------------|
B|----------------------------------------------------------------------|
G|--5--5----------------------------------------------------------------| X1
D|--5--5--5--5--3--3-3--3-3--3-3--3-3--3-3-3--5-5--5-5--5-5--5-5--5-5-5-|
A|--3--3--5--5--3--3-3--3-3--3-3--3-3--3-3-3--5-5--5-5--5-5--5-5--5-5-5-|
E|--------3--3--1--1-1--1-1--1-1--1-1--1-1-1--3-3--3-3--3-3--3-3--3-3-3-|

e|---------------------------|
B|---------------------------|
G|-----5----5-5--------------| X4
D|--5--5----5-5--8--8--3--3--|
A|--5--3----3-3--8--8--3--3--|
E|--3------------6--6--1--1--|

e|------------------------------------------------------|
B|------------------------------------------------------|
G|-----5----5-5-----------------------------------------| X1
D|--5--5----5-5--8--8--3--3--5--5--5--5--5--5--5--5--5--|
A|--5--3----3-3--8--8--3--3--5--5--5--5--5--5--5--5--5--|
E|--3------------6--6--1--1--3--3--3--3--3--3--3--3--3--|

e|--------------------|
B|--------------------|
G|--5--5--------------| X4
D|--5--5--5--5--3--3--|
A|--3--3--5--5--3--3--|
E|--------3--3--1--1--|

e|--------------------------------------------------------------------------|
B|--------------------------------------------------------------------------|
G|--5--5--------------------------------------------------------------------|
D|--5--5--5--5--3--3--3--3--3--3--3--3--3--3--5--5--5--5--5--5--5--5--5--5--|
A|--3--3--5--5--3--3--3--3--3--3--3--3--3--3--5--5--5--5--5--5--5--5--5--5--|
E|--------3--3--1--1--1--1--1--1--1--1--1--1--3--3--3--3--3--3--3--3--3--3--|

e|--------------------|
B|--------------------|
G|--------------------| X1
D|--5--5--5--5--5--5--|
A|--5--5--5--5--5--5--|
E|--3--3--3--3--3--3--|

e|---------------------------|
B|---------------------------|
G|-----5----5-5--------------| X5
D|--5--5----5-5--8--8--3--3--|
A|--5--3----3-3--8--8--3--3--|
E|--3------------6--6--1--1--|

e|------------------------------------------------------|
B|------------------------------------------------------|
G|-----5----5-5-----------------------------------------| X1
D|--5--5----5-5--8--8--3--3--5--5--5--5--5--5--5--5--5--|
A|--5--3----3-3--8--8--3--3--5--5--5--5--5--5--5--5--5--|
E|--3------------6--6--1--1--3--3--3--3--3--3--3--3--3--|

Solo:

e|-------9----------8---------6---------8----|
B|-----9----------9---------7---------9------|
G|--10-----10---8-----8---6-----6---8-----8--| X5
D|-------------------------------------------|
A|-------------------------------------------|
E|-------------------------------------------|

OR

e|-----------------------------------------|
B|-----------------------------------------|
G|------5----------------------------------| X5
D|----5---5-------5---------3---------5----|
A|--3-----------5---5-----3---3-----5---5--|
E|------------3---------1---------3--------|

Outro:

e|--------------------------------------------------|
B|--------------------------------------------------|
G|--5--5--5--5--------------------------------------| X5
D|--5--5--5--5--5--5--5--5--3--3--3--3--5--5--5--5--|
A|--3--3--3--3--5--5--5--5--3--3--3--3--5--5--5--5--|
E|--------------3--3--3--3--1--1--1--1--3--3--3--3--|

e|-----|
B|-----|
G|--5--| X1
D|--5--|
A|--3--|
E|-----|

P.S.
If you are trying to play with the original music video from YouTube, 
only do the first part X2.
Tap to rate this tab
 
# A B C D E F G H I J K L M N O P Q R S T U V W X Y Z