Song name
# A B C D E F G H I J K L M N O P Q R S T U V W X Y Z

Joan Jett And The Blackhearts - Handyman tab

Handyman
Joan Jett and the Blackhearts
Album: Album
Year: 1983

Verse: 
e|------------|
B|------------|
G|-----7------| 
D|--5--7------|  x3
A|--5--5------|
E|--3---------|

Pre-Chorus
e|----------|
B|----------|
G|----------| 
D|--5---7---|   x3
A|--5---7---|
E|--3---5---|

Chorus:
e|-------------------------|
B|-------------------------|
G|-------------------------| 
D|---3--3---5--5--7--7-----| x3
A|---3--3---5--5--7--7-----|
E|---1--1---3--3--5--5-----|

Verse (only play chords 2x)
Pre-Chorus                      
Chorus

Verse (only play chords 2x)
Pre-Chorus                      
Chorus
Tap to rate this tab
 
# A B C D E F G H I J K L M N O P Q R S T U V W X Y Z