Song name
# A B C D E F G H I J K L M N O P Q R S T U V W X Y Z

Joan Jett And The Blackhearts - Victim Of Circumstance tab

Victim of Circumstance
Joan Jett and the Blackhearts
Album: I Love Rock N Roll
Year: 1982


Verse:
e|------------------------------------|
B|------------------------------------|
G|--9---------------------------------| 
D|--9-----9---------------------------|     x2
A|--7-----9-----7------9x5-----------|
E|--------7-----5------7--------------|


Chorus: 
e|-----------------|
B|-----------------|
G|---9-------------| 
D|---9------5------|  x3
A|---7------5------|
E|----------3------|

e|---------|
B|---------|
G|---------| 
D|---9-----|   x6
A|---9-----|
E|---7-----|

VERSE
CHORUS

Bridge: 
e|--------------------------|
B|--------------------------|
G|---7--7-------------------| 
D|---7--7---7--5--7--7------| x3
A|---5--5---7--5--7--7------|
E|----------5--3--5--5------|

e|----------|
B|----------|
G|----------| 
D|----9-----| x8
A|----9-----|
E|----7-=---|

VERSE
CHORUS
Tap to rate this tab
 
# A B C D E F G H I J K L M N O P Q R S T U V W X Y Z