Song name
# A B C D E F G H I J K L M N O P Q R S T U V W X Y Z

Joan Jett And The Blackhearts - You Want In I Want Out tab

Joan Jett and The Blackhearts - You want in I want out
Tuning: Standard

I think it's correct, enjoy :)

INTRO:
Guitar I
e|----------------|
B|----------------|
G|-----7--9-------| x4
D|--9--7--9-------|
A|--9--5--7-------|
E|--7-------------|
pm.........

Guitar II: it starts at 0:16
e|--------------------------|
B|--------------------------|
G|--7------------7----------| x4 The last time, let ring the last note
D|--7---9---7-9--7--9-9-----|
A|--5---9---7-9--5--9-9-----|
E|------7---5-7-----7-7-----|

VERSE:
e|--------------|
B|--------------|
G|-----5---9----| x2
D|--9--5---9----|
A|--9--3---7----|
E|--7-----------|
PM...

PRE-CHORUS:
e|----------------|
B|----------------|
G|--------5--7----| x2 You can play it with palm mute
D|--5--7--5--7----|
A|--5--7--3--5----|
E|--3--5----------|

CHORUS:
e|------------------------------|
B|------------------------------|
G|--9--------------9-----5--7---|
D|--9----5----7----9--5--5--7---|
A|--7----5----7----7--5--3--5---|
E|-------3----5-------3---------|

POST-CHORUS:
e|---------------|
B|---------------|
G|------5---7----| x2
D|--2---5---7----|
A|--2---3---5----|
E|--0------------|

VERSE
PRE-CHORUS
CHORUS
POST-CHORUS

BRIDGE: it's easy, just play the Intro. I didn't tab the little solo.

PRE-CHORUS
CHORUS
POST-CHORUS

OUTRO:
e|---------------------|
B|---------------------|
G|--9-----------9------| Repeat until the end.
D|--9---5---7---9------|
A|--7---5---7---7------|
E|------3---5----------|
Tap to rate this tab
 
# A B C D E F G H I J K L M N O P Q R S T U V W X Y Z