Joan Jett And The Blackhearts - Love Is Pain tab

I love this song so much!! 

e|----------------------------------------------|
B|----------------------------------------------|
G|----------------------------------------------|
D|--0----0-0-0-0---0-0-0-0-0-0-0-0-0-0-0-0------|
A|----------------------------------------------| (2x)
E|--5----3-3-3-5---3-3-3-5-3-3-3-5-3-3-3-5------|

Hey you must obey...
e|----------------------------------------------|
B|----------------------------------------------|
G|----------------------------------------------|
D|--0----0-0-0-0-----0-0-0-0-0-0-0-0-0-0-0-0----|
A|----------------------------------------------|
E|--5----3-3-3-5-----3-3-3-5-3-3-3-5-3-3-3-5----|

So now you listen up...
e|----------------------------------------------|
B|----------------------------------------------|
G|--0----0-0-0-0-----0-0-0-0-0-0-0-0-0-0-0-0----|
D|----------------------------------------------|
A|--7----5-5-5-7-----5-5-5-7-5-5-5-7-5-5-5-7----|
E|----------------------------------------------|

And when i speak to you...
e|----------------------------------------------|
B|----------------------------------------------|
G|----------------------------------------------|
D|--0----0-0-0-0-----0-0-0-0-0-0-0-0-0-0-0-0----|
A|----------------------------------------------|
E|--5----3-3-3-5-----3-3-3-5-3-3-3-5-3-3-3-5----|

I love to make you wait...
e|----------------------------------------------|
B|----------------------------------------------|
G|--0----0-0-0-0-----0-0-0-0-0-0-0-0-0-0-0-0----|
D|----------------------------------------------|
A|--7----5-5-5-7-----5-5-5-7-5-5-5-7-5-5-5-7----|
E|----------------------------------------------|

We are not ashamed...
e|-------------------------------------------------|
B|-------------------------------------------------|
G|-------------------------------------------------|
D|-------------------------------------------------|
A|-9-9-9-10-7---7-7-7-8-5---9-9-9-10-7---7-7-7-8-5-|
E|-------------------------------------------------|
Tap to rate this tab
 
# A B C D E F G H I J K L M N O P Q R S T U V W X Y Z