Song name
# A B C D E F G H I J K L M N O P Q R S T U V W X Y Z

Joan Jett - I Need Someone tab

-------------------------------------------------------------------------------
			     Joan Jett - I need someone
-------------------------------------------------------------------------------
Tabbed by:Matt
Email:

Tuning:Standard
Intro(single notes part)
e|--------------------------------------------------------------------------|
B|------5-------------------------------------------------------------------|
G|-----5--------------------------------------------------------------------|
D|----5--------5-7-------------------------3--------------------------------|
A|---3--------7---------------------------3---------------------------------|
E|-----------5-----------5-----3-----1---1----------------------------------|
...someone like you!-you!-you!
e|-------------|
B|-------------|
G|-------------|
D|---5-5-------|
A|---5-5-------|
E|---3-3-------| x3

Verse
e|--------------------------------------------------------------------------|
B|--------------------------------------------------------------------------|
G|---5-5-5--55555-----------------------------------------------------------|
D|---5-5-5--55555----7-7-7--77777----3-3-3--33333---5-5-5--55555------------|
A|---3-3-3--33333----7-7-7--77777----3-3-3--33333---5-5-5--55555------------|
E|-------------------5-5-5--55555----1-1-1--11111---3-3-3--33333------------|
chorus(hold each note for about 3 seconds)
e|--------|
B|--------|
G|--5-----|
D|--5-7-3-|
A|--3-7-3-|
E|----5-1-|
then when she says "you" 3 times do this
e|---------------------------------------------------------------------------|
B|---------------------------------------------------------------------------|
G|---------------------------------------------------------------------------|
D|-55---55---55--------------------------------------------------------------|
A|-55---55---55--------------------------------------------------------------|
E|-33---33---33--------------------------------------------------------------|
thats it, to get it true id listen to the song and play to it, and if you dont have the 
then go on youtube and look it up

| /  slide up
| \  slide down
| h  hammer-on
| p  pull-off
| ~  vibrato
| +  harmonic
| x  Mute note
===============================================================================
Tap to rate this tab
# A B C D E F G H I J K L M N O P Q R S T U V W X Y Z