Song name
# A B C D E F G H I J K L M N O P Q R S T U V W X Y Z

Joan Jett - Five tab

 ok this is only the main part of it.You'll have to figure out the rest of it.



e|-----------------------------|
b|-----------------------------|
g|--111111---999999---666666---|
d|--111111---999999---666666---|  intro (repeat twice)
a|--999999---777777---444444---|
E|--999999---777777---444444---|



Then,

e|-------------------------------------------------|
b|-------------------------------------------------|
g|---2--2-2----5---3---2-2-------------------------|
a|---2--2-2----5---3---2-2-----2--2-2---5---3---2-2|
d|---0--0-0----3---1---0-0-----2--2-2---5---3---2-2|
E|-----------------------------0--0-0---3---1---0-0|


then repeat intro again for chorus.


Thats pretty much it. well comment and rate please. Thanks, Aaron
Tap to rate this tab
 
# A B C D E F G H I J K L M N O P Q R S T U V W X Y Z