Song name
# A B C D E F G H I J K L M N O P Q R S T U V W X Y Z

Joan Jett - I Love Playing With Fire tab

Joan Jett, The runaways

Es mi primer tab, se que no es perfecto pero no suena mal^^
si ven algun fallo diganmelo por favor, espero que les guste...

This is my first tab, I know that it isn't perfect but sounds good^^
If somebody see some mistakes please tell me, I hope you like...

-------------------------------------------------------------------------


INTRO
    D   Am  E
e|--2-----------|                            
B|--3-----------|
G|--2---2---1---| x3                    
D|------2---2---|
A|----------2---|
E|--------------|

    D   Am  E
e|--2-----------|                            
B|--3-----------|
G|--2---2---9---|                    
D|------2---9---|
A|----------7---|
E|--------------|

VERSE
My one and only shining star said...

e|----------------------------------------------------------------|
B|----------------------------------------------------------------|
G|----7/-99999---7/-99999--5/-77777--7/99999----------------------|
D|----7/-99999---7/-99999--5/-77777--7/99999----------------------|
A|----5/-77777---5/-77777--3/-55555--5/77777----------------------|
E|----------------------------------------------------------------|


CHORUS
I love playing with fire...

e|------------------------------------|
B|------------------------------------|
G|----55-77-9999-----55-77--9---------|
D|----55-77-9999--x3-55-77--9---------|
A|----33-55-7777-----33-55--7---------|
E|------------------------------------|

INTRO

VERSE
My heart is aching to see you play...

CHORUS
I love playing with fire

SOLO PART (verse+chorus)

e|----------------------------------------------------------------|
B|----------------------------------------------------------------|
G|----7/-99999---7/-99999--5/-77777--7/99999----------------------|
D|----7/-99999---7/-99999--5/-77777--7/99999----------------------|
A|----5/-77777---5/-77777--3/-55555--5/77777----------------------|
E|----------------------------------------------------------------|
                            E
e|---------------------------------------|
B|---------------------------------------|
G|----55-77-9999--------55-77--1---------|
D|----55-77-9999--x3----55-77--2---------|
A|----33-55-7777--------33-55--2---------|
E|---------------------------------------|

INTRO

VERSE
Acting tough with looks that kill...

CHORUS
I love playing with fire...
Tap to rate this tab
 
# A B C D E F G H I J K L M N O P Q R S T U V W X Y Z