Song name
# A B C D E F G H I J K L M N O P Q R S T U V W X Y Z

Joan Jett - Love Is Pain tab

This is my first ever tab I worked this out by watching Joan Jett do a live 
performance of this and its as close to the real tab as possible of the part she plays! 

Enjoy!!

Intro: 

USE DISTAIN
e|---------------------------------------------------------------------------|
(Repeat this really fast for bout 4secs let last note ring for bout10secs)
B|---------------------------------------------------------------------------|
G|-----2p0h2p0h2p0h2p0h2p0hp20h2p0h2p0h2p0h2-p0-h2--p0---2-------------------|
D|---------------------------------------------------------------------------|
A|---------------------------------------------------------------------------|
E|---------------------------------------------------------------------------|
       

e|-------x---x--x--x---x---x--x--x---x---x--x--x---x---x--x--x---x-----------|
B|-------3---0--0--0---3---0--0--0---3---0--0--0---3---0--0--0---3-----------|
G|-------2---0--0--0---2---0--0--0---2---0--0--0---2---0--0--0---2-----------|
D|-------0---0--0--0---0---0--0--0---0---0--0--0---0---0--0--0---0-----------|
A|-------x---x--x--x---x---x--x--x---x---x--x--x---x---x--x--x---x-----------|
E|-------x---x--x--x---x---x--x--x---x---x--x--x---x---x--x--x---x-----------|



e|-------x---x--x--x---x---x--x--x---x---x--x--x---x---x--x--x---x-----------|
B|-------3---0--0--0---3---0--0--0---3---0--0--0---3---0--0--0---3-----------|
G|-------2---0--0--0---2---0--0--0---2---0--0--0---2---0--0--0---2-----------|
D|-------0---0--0--0---0---0--0--0---0---0--0--0---0---0--0--0---0-----------|
A|-------x---x--x--x---x---x--x--x---x---x--x--x---x---x--x--x---x-----------|
E|-------x---x--x--x---x---x--x--x---x---x--x--x---x---x--x--x---x-----------|



1ST VERSE: 

e|-------x---x--x--x---x---x--x--x---x---x--x--x---x---x--x--x---x-----------|
B|-------3---0--0--0---3---0--0--0---3---0--0--0---3---0--0--0---3-----------|
G|-------2---0--0--0---2---0--0--0---2---0--0--0---2---0--0--0---2-----------|
D|-------0---0--0--0---0---0--0--0---0---0--0--0---0---0--0--0---0-----------|
A|-------x---x--x--x---x---x--x--x---x---x--x--x---x---x--x--x---x-----------|
E|-------x---x--x--x---x---x--x--x---x---x--x--x---x---x--x--x---x-----------|
  
      HEY! YOU MUST OBEY! OR YOU WILL BLEED YOU KNOW I NEED TO GET MY WAY 
 



e|-------x---x--x--x---x---x--x--x---x---x--x--x---x---x--x--x---x-----------|
B|-------x---0--0--0---x---0--0--0---x---0--0--0---x---0--0--0---x-----------|
G|-------2---0--0--0---2---0--0--0---2---0--0--0---2---0--0--0---2-----------|
D|-------2---0--0--0---2---0--0--0---2---0--0--0---2---0--0--0---2-----------|
A|-------x---x--x--x---x---x--x--x---x---x--x--x---x---x--x--x---x-----------|
E|-------x---x--x--x---x---x--x--x---x---x--x--x---x---x--x--x---x-----------|

      SO NOW YOU LISTEN UP! YOU ARE MY PUP, I'LL BEAT YOU UP IN EVERY WAY




e|-------x---x--x--x---x---x--x--x---x---x--x--x---x---x--x--x---x-----------|
B|-------3---0--0--0---3---0--0--0---3---0--0--0---3---0--0--0---3-----------|
G|-------2---0--0--0---2---0--0--0---2---0--0--0---2---0--0--0---2-----------|
D|-------0---0--0--0---0---0--0--0---0---0--0--0---0---0--0--0---0-----------|
A|-------x---x--x--x---x---x--x--x---x---x--x--x---x---x--x--x---x-----------|
E|-------x---x--x--x---x---x--x--x---x---x--x--x---x---x--x--x---x-----------|


  AND WHEN I SPEAK TO YOU, YOU ANSWER TRUE OR I WILL MAKE YOU BLACK AND BLUE




e|-------x---x--x--x---x---x--x--x---x---x--x--x---x---x--x--x---x-----------|
B|-------x---x--x--x---x---x--x--x---x---x--x--x---x---x--x--x---x-----------|
G|-------2---0--0--0---2---0--0--0---2---0--0--0---2---0--0--0---2-----------|
D|-------2---0--0--0---2---0--0--0---2---0--0--0---2---0--0--0---2-----------|
A|-------x---x--x--x---x---x--x--x---x---x--x--x---x---x--x--x---x-----------|
E|-------x---x--x--x---x---x--x--x---x---x--x--x---x---x--x--x---x-----------|


 I LOVE TO MAKE YOU WAIT! YOU TAKE THE BAIT I NO YOU HATE AND LOVE ME TOO!




e|--x-x-x-x-x-x-x-x---x-x-x-x-x-x-x-x---x-x-x-x-x-x-x-x---x-x-x-x-x-x-x-x----|
B|--x-x-x-x-x-x-x-x---x-x-x-x-x-x-x-x---x-x-x-x-x-x-x-x---x-x-x-x-x-x-x-x----|
G|--7-7-7-7-7-7-7-7---x-x-x-x-x-x-x-x---5-5-5-5-5-5-5-5---x-x-x-x-x-x-x-x----|
D|--7-7-7-7-7-7-7-7---7-7-7-7-7-7-7-7---5-5-5-5-5-5-5-5---5-5-5-5-5-5-5-5----|
A|--5-5-5-5-5-5-5-5---7-7-7-7-7-7-7-7---3-3-3-3-3-3-3-3---5-5-5-5-5-5-5-5----|
E|--x-x-x-x-x-x-x-x---5-5-5-5-5-5-5-5---x-x-x-x-x-x-x-x---3-3-3-3-3-3-3-3----|

       WE ARE NOT TO BLAME,                    FOR SEEING LOVE IS PAIN





e|--x-x-x-x-x-x-x-x---x-x-x-x-x-x-x-x---x-x-x-x-x-x-x-x---x-x-x-x-x-x-x-x----|
B|--x-x-x-x-x-x-x-x---x-x-x-x-x-x-x-x---x-x-x-x-x-x-x-x---x-x-x-x-x-x-x-x----|
G|--7-7-7-7-7-7-7-7---x-x-x-x-x-x-x-x---5-5-5-5-5-5-5-5---x-x-x-x-x-x-x-x----|
D|--7-7-7-7-7-7-7-7---7-7-7-7-7-7-7-7---5-5-5-5-5-5-5-5---5-5-5-5-5-5-5-5----|
A|--5-5-5-5-5-5-5-5---7-7-7-7-7-7-7-7---3-3-3-3-3-3-3-3---5-5-5-5-5-5-5-5----|
E|--x-x-x-x-x-x-x-x---5-5-5-5-5-5-5-5---x-x-x-x-x-x-x-x---3-3-3-3-3-3-3-3----|


    AND WE ARE NOT ASHAMED TO SAY THAT LOVE IS PAIN AND WE'LL DO IT AGAIN 
 


                                                      
(Now repeat 1st verse chords once)
                                    YOU KNOW IT OWWW! 



2ND VERSE (Repeat 1st verse again with 2nd verse lyrics)


2ND VERSE LYRICS:

WELL I KNOW YOUR NOT AFRAID, CUS WHEN YOU STAYED YOU KNEW YOU'D MAKE THE FINAL SHOW 
SO NOW YOU MUST SUBMIT, I'LL NEVER QUIT TILL YOU ADMIT YOU'LL NEVER GO.



2ND CHORUS:

e|--x-x-x-x-x-x-x-x---x-x-x-x-x-x-x-x---x-x-x-x-x-x-x-x---x-x-x-x-x-x-x-x----|
B|--x-x-x-x-x-x-x-x---x-x-x-x-x-x-x-x---x-x-x-x-x-x-x-x---x-x-x-x-x-x-x-x----|
G|--7-7-7-7-7-7-7-7---x-x-x-x-x-x-x-x---5-5-5-5-5-5-5-5---x-x-x-x-x-x-x-x----|
D|--7-7-7-7-7-7-7-7---7-7-7-7-7-7-7-7---5-5-5-5-5-5-5-5---5-5-5-5-5-5-5-5----|
A|--5-5-5-5-5-5-5-5---7-7-7-7-7-7-7-7---3-3-3-3-3-3-3-3---5-5-5-5-5-5-5-5----|
E|--x-x-x-x-x-x-x-x---5-5-5-5-5-5-5-5---x-x-x-x-x-x-x-x---3-3-3-3-3-3-3-3----|


       WE ARE NOT TO BLAME,                    FOR SEEING LOVE IS PAIN




e|--x-x-x-x-x-x-x-x---x-x-x-x-x-x-x-x---x-x-x-x-x-x-x-x---x-x-x-x-x-x-x-x----|
B|--x-x-x-x-x-x-x-x---x-x-x-x-x-x-x-x---x-x-x-x-x-x-x-x---x-x-x-x-x-x-x-x----|
G|--7-7-7-7-7-7-7-7---x-x-x-x-x-x-x-x---5-5-5-5-5-5-5-5---x-x-x-x-x-x-x-x----|
D|--7-7-7-7-7-7-7-7---7-7-7-7-7-7-7-7---5-5-5-5-5-5-5-5---5-5-5-5-5-5-5-5----|
A|--5-5-5-5-5-5-5-5---7-7-7-7-7-7-7-7---3-3-3-3-3-3-3-3---5-5-5-5-5-5-5-5----|
E|--x-x-x-x-x-x-x-x---5-5-5-5-5-5-5-5---x-x-x-x-x-x-x-x---3-3-3-3-3-3-3-3----|

    AND WE ARE NOT ASHAMED TO SAY THAT LOVE IS PAIN AND..........

e|--x-x-x-x-x-x-x-x---x-x-x-x-x-x-x-x---x-x-x-x-x-x-x-x---x-x-x-x-x-x-x-x----|
B|--x-x-x-x-x-x-x-x---x-x-x-x-x-x-x-x---x-x-x-x-x-x-x-x---x-x-x-x-x-x-x-x----|
G|--7-7-7-7-7-7-7-7---x-x-x-x-x-x-x-x---5-5-5-5-5-5-5-5---x-x-x-x-x-x-x-x----|
D|--7-7-7-7-7-7-7-7---7-7-7-7-7-7-7-7---5-5-5-5-5-5-5-5---5-5-5-5-5-5-5-5----|
A|--5-5-5-5-5-5-5-5---7-7-7-7-7-7-7-7---3-3-3-3-3-3-3-3---5-5-5-5-5-5-5-5----|
E|--x-x-x-x-x-x-x-x---5-5-5-5-5-5-5-5---x-x-x-x-x-x-x-x---3-3-3-3-3-3-3-3----|


       WE ARE NOT ASHAMED,                    




e|--x-x-x-x-x-x-x-x---x-x-x-x-x-x-x-x---x-x-x-x-x-x-x-x---x-x-x-x-x-x-x-x----|
B|--x-x-x-x-x-x-x-x---x-x-x-x-x-x-x-x---x-x-x-x-x-x-x-x---x-x-x-x-x-x-x-x----|
G|--7-7-7-7-7-7-7-7---x-x-x-x-x-x-x-x---5-5-5-5-5-5-5-5---x-x-x-x-x-x-x-x----|
D|--7-7-7-7-7-7-7-7---7-7-7-7-7-7-7-7---5-5-5-5-5-5-5-5---5-5-5-5-5-5-5-5----|
A|--5-5-5-5-5-5-5-5---7-7-7-7-7-7-7-7---3-3-3-3-3-3-3-3---5-5-5-5-5-5-5-5----|
E|--x-x-x-x-x-x-x-x---5-5-5-5-5-5-5-5---x-x-x-x-x-x-x-x---3-3-3-3-3-3-3-3----|

    AND WE ARE NOT ASHAMED 



e|--x-x-x-x-x-x-x-x---x-x-x-x-x-x-x-x---x-x-x-x-x-x-x-x---x-x-x-x-x-x-x-x----|
B|--x-x-x-x-x-x-x-x---x-x-x-x-x-x-x-x---x-x-x-x-x-x-x-x---x-x-x-x-x-x-x-x----|
G|--7-7-7-7-7-7-7-7---x-x-x-x-x-x-x-x---5-5-5-5-5-5-5-5---x-x-x-x-x-x-x-x----|
D|--7-7-7-7-7-7-7-7---7-7-7-7-7-7-7-7---5-5-5-5-5-5-5-5---5-5-5-5-5-5-5-5----|
A|--5-5-5-5-5-5-5-5---7-7-7-7-7-7-7-7---3-3-3-3-3-3-3-3---5-5-5-5-5-5-5-5----|
E|--x-x-x-x-x-x-x-x---5-5-5-5-5-5-5-5---x-x-x-x-x-x-x-x---3-3-3-3-3-3-3-3----|

    AND WE ARE NOT ASHAMED TO SAY THAT LOVE IS PAIN AND WE'LL DO IT AGAIN...

OUTRO: REPEAT VERSE 1

************************************

| /   slide up
| \   slide down
| h   hammer-on
| p   pull-off
| ~   vibrato
| +   harmonic
| x   Mute note
| b   Bend
| pb  Pre-bend
| br  Bend release
| pbr Pre-bend release
| brb Bend release bend
Tap to rate this tab
 
# A B C D E F G H I J K L M N O P Q R S T U V W X Y Z